  0
SECTION
  2
HEADER
  9
$ACADVER
  1
AC1015
  9
$ACADMAINTVER
 70
    20
  9
$DWGCODEPAGE
  3
ANSI_1252
  9
$INSBASE
 10
0.0
 20
0.0
 30
0.0
  9
$EXTMIN
 10
6.92060423622763
 20
-8.785288380370275
 30
0.0
  9
$EXTMAX
 10
600.9206042362277
 20
411.2147116196297
 30
0.0
  9
$LIMMIN
 10
6.920604236227744
 20
-8.785288380370275
  9
$LIMMAX
 10
600.9206042362277
 20
411.2147116196296
  9
$ORTHOMODE
 70
     0
  9
$REGENMODE
 70
     1
  9
$FILLMODE
 70
     1
  9
$QTEXTMODE
 70
     0
  9
$MIRRTEXT
 70
     0
  9
$LTSCALE
 40
1.0
  9
$ATTMODE
 70
     1
  9
$TEXTSIZE
 40
0.2
  9
$TRACEWID
 40
0.05
  9
$TEXTSTYLE
  7
Standard
  9
$CLAYER
  8
0
  9
$CELTYPE
  6
ByLayer
  9
$CECOLOR
 62
   256
  9
$CELTSCALE
 40
1.0
  9
$DISPSILH
 70
     0
  9
$DIMSCALE
 40
1.0
  9
$DIMASZ
 40
1.799999999999999
  9
$DIMEXO
 40
0.0625
  9
$DIMDLI
 40
0.38
  9
$DIMRND
 40
0.0
  9
$DIMDLE
 40
0.0
  9
$DIMEXE
 40
0.18
  9
$DIMTP
 40
0.0
  9
$DIMTM
 40
0.0
  9
$DIMTXT
 40
0.3499999940395355
  9
$DIMCEN
 40
0.09
  9
$DIMTSZ
 40
0.0
  9
$DIMTOL
 70
     0
  9
$DIMLIM
 70
     0
  9
$DIMTIH
 70
     1
  9
$DIMTOH
 70
     1
  9
$DIMSE1
 70
     0
  9
$DIMSE2
 70
     0
  9
$DIMTAD
 70
     0
  9
$DIMZIN
 70
     0
  9
$DIMBLK
  1

  9
$DIMASO
 70
     1
  9
$DIMSHO
 70
     1
  9
$DIMPOST
  1

  9
$DIMAPOST
  1

  9
$DIMALT
 70
     0
  9
$DIMALTD
 70
     2
  9
$DIMALTF
 40
25.4
  9
$DIMLFAC
 40
1.0
  9
$DIMTOFL
 70
     0
  9
$DIMTVP
 40
0.0
  9
$DIMTIX
 70
     0
  9
$DIMSOXD
 70
     0
  9
$DIMSAH
 70
     0
  9
$DIMBLK1
  1

  9
$DIMBLK2
  1

  9
$DIMSTYLE
  2
Standard
  9
$DIMCLRD
 70
     0
  9
$DIMCLRE
 70
     0
  9
$DIMCLRT
 70
     0
  9
$DIMTFAC
 40
1.0
  9
$DIMGAP
 40
0.09
  9
$DIMJUST
 70
     0
  9
$DIMSD1
 70
     0
  9
$DIMSD2
 70
     0
  9
$DIMTOLJ
 70
     1
  9
$DIMTZIN
 70
     0
  9
$DIMALTZ
 70
     0
  9
$DIMALTTZ
 70
     0
  9
$DIMUPT
 70
     0
  9
$DIMDEC
 70
     4
  9
$DIMTDEC
 70
     4
  9
$DIMALTU
 70
     2
  9
$DIMALTTD
 70
     2
  9
$DIMTXSTY
  7
Standard
  9
$DIMAUNIT
 70
     0
  9
$DIMADEC
 70
     0
  9
$DIMALTRND
 40
0.0
  9
$DIMAZIN
 70
     0
  9
$DIMDSEP
 70
    46
  9
$DIMATFIT
 70
     3
  9
$DIMFRAC
 70
     0
  9
$DIMLDRBLK
  1

  9
$DIMLUNIT
 70
     2
  9
$DIMLWD
 70
    -2
  9
$DIMLWE
 70
    -2
  9
$DIMTMOVE
 70
     0
  9
$LUNITS
 70
     2
  9
$LUPREC
 70
     4
  9
$SKETCHINC
 40
0.1
  9
$FILLETRAD
 40
0.0
  9
$AUNITS
 70
     0
  9
$AUPREC
 70
     0
  9
$MENU
  1
.
  9
$ELEVATION
 40
0.0
  9
$PELEVATION
 40
0.0
  9
$THICKNESS
 40
0.0
  9
$LIMCHECK
 70
     0
  9
$CHAMFERA
 40
0.0
  9
$CHAMFERB
 40
0.0
  9
$CHAMFERC
 40
0.0
  9
$CHAMFERD
 40
0.0
  9
$SKPOLY
 70
     0
  9
$TDCREATE
 40
2453509.603714329
  9
$TDUCREATE
 40
2453509.520380996
  9
$TDUPDATE
 40
2453669.421030070
  9
$TDUUPDATE
 40
2453669.337696736
  9
$TDINDWG
 40
0.0213754282
  9
$TDUSRTIMER
 40
0.0213727778
  9
$USRTIMER
 70
     1
  9
$ANGBASE
 50
0.0
  9
$ANGDIR
 70
     0
  9
$PDMODE
 70
     0
  9
$PDSIZE
 40
0.0
  9
$PLINEWID
 40
0.0
  9
$SPLFRAME
 70
     0
  9
$SPLINETYPE
 70
     6
  9
$SPLINESEGS
 70
     8
  9
$HANDSEED
  5
A87
  9
$SURFTAB1
 70
     6
  9
$SURFTAB2
 70
     6
  9
$SURFTYPE
 70
     6
  9
$SURFU
 70
     6
  9
$SURFV
 70
     6
  9
$UCSBASE
  2

  9
$UCSNAME
  2

  9
$UCSORG
 10
0.0
 20
0.0
 30
0.0
  9
$UCSXDIR
 10
1.0
 20
0.0
 30
0.0
  9
$UCSYDIR
 10
0.0
 20
1.0
 30
0.0
  9
$UCSORTHOREF
  2

  9
$UCSORTHOVIEW
 70
     0
  9
$UCSORGTOP
 10
0.0
 20
0.0
 30
0.0
  9
$UCSORGBOTTOM
 10
0.0
 20
0.0
 30
0.0
  9
$UCSORGLEFT
 10
0.0
 20
0.0
 30
0.0
  9
$UCSORGRIGHT
 10
0.0
 20
0.0
 30
0.0
  9
$UCSORGFRONT
 10
0.0
 20
0.0
 30
0.0
  9
$UCSORGBACK
 10
0.0
 20
0.0
 30
0.0
  9
$PUCSBASE
  2

  9
$PUCSNAME
  2

  9
$PUCSORG
 10
0.0
 20
0.0
 30
0.0
  9
$PUCSXDIR
 10
1.0
 20
0.0
 30
0.0
  9
$PUCSYDIR
 10
0.0
 20
1.0
 30
0.0
  9
$PUCSORTHOREF
  2

  9
$PUCSORTHOVIEW
 70
     0
  9
$PUCSORGTOP
 10
0.0
 20
0.0
 30
0.0
  9
$PUCSORGBOTTOM
 10
0.0
 20
0.0
 30
0.0
  9
$PUCSORGLEFT
 10
0.0
 20
0.0
 30
0.0
  9
$PUCSORGRIGHT
 10
0.0
 20
0.0
 30
0.0
  9
$PUCSORGFRONT
 10
0.0
 20
0.0
 30
0.0
  9
$PUCSORGBACK
 10
0.0
 20
0.0
 30
0.0
  9
$USERI1
 70
     0
  9
$USERI2
 70
     0
  9
$USERI3
 70
     0
  9
$USERI4
 70
     0
  9
$USERI5
 70
     0
  9
$USERR1
 40
0.0
  9
$USERR2
 40
0.0
  9
$USERR3
 40
0.0
  9
$USERR4
 40
0.0
  9
$USERR5
 40
0.0
  9
$WORLDVIEW
 70
     1
  9
$SHADEDGE
 70
     3
  9
$SHADEDIF
 70
    70
  9
$TILEMODE
 70
     1
  9
$MAXACTVP
 70
    64
  9
$PINSBASE
 10
0.0
 20
0.0
 30
0.0
  9
$PLIMCHECK
 70
     0
  9
$PEXTMIN
 10
0.0
 20
0.0
 30
0.0
  9
$PEXTMAX
 10
709.676
 20
548.3859999999999
 30
0.0
  9
$PLIMMIN
 10
0.0
 20
0.0
  9
$PLIMMAX
 10
709.676
 20
548.3859999999999
  9
$UNITMODE
 70
     0
  9
$VISRETAIN
 70
     1
  9
$PLINEGEN
 70
     0
  9
$PSLTSCALE
 70
     1
  9
$TREEDEPTH
 70
  3020
  9
$CMLSTYLE
  2
Standard
  9
$CMLJUST
 70
     0
  9
$CMLSCALE
 40
1.0
  9
$PROXYGRAPHICS
 70
     1
  9
$MEASUREMENT
 70
     1
  9
$CELWEIGHT
370
    -1
  9
$ENDCAPS
280
     0
  9
$JOINSTYLE
280
     0
  9
$LWDISPLAY
290
     0
  9
$INSUNITS
 70
     0
  9
$HYPERLINKBASE
  1

  9
$STYLESHEET
  1

  9
$XEDIT
290
     1
  9
$CEPSNTYPE
380
     0
  9
$PSTYLEMODE
290
     1
  9
$FINGERPRINTGUID
  2
{668C009C-1038-4A97-A4B7-C7E2013B8D97}
  9
$VERSIONGUID
  2
{A20E4A04-1573-4E96-A279-D832DB52824C}
  9
$EXTNAMES
290
     1
  9
$PSVPSCALE
 40
0.0
  9
$OLESTARTUP
290
     0
  0
ENDSEC
  0
SECTION
  2
CLASSES
  0
CLASS
  1
ACDBDICTIONARYWDFLT
  2
AcDbDictionaryWithDefault
  3
ObjectDBX Classes
 90
        0
280
     0
281
     0
  0
CLASS
  1
DICTIONARYVAR
  2
AcDbDictionaryVar
  3
ObjectDBX Classes
 90
        0
280
     0
281
     0
  0
CLASS
  1
ACDBPLACEHOLDER
  2
AcDbPlaceHolder
  3
ObjectDBX Classes
 90
        0
280
     0
281
     0
  0
CLASS
  1
LAYOUT
  2
AcDbLayout
  3
ObjectDBX Classes
 90
        0
280
     0
281
     0
  0
CLASS
  1
AMGSETTINGSOBJ
  2
AmgSettingsObj
  3
"AcadM|Product Description: AutoCAD Mechanical 2000|Company: Autodesk"
 90
        0
280
     0
281
     0
  0
CLASS
  1
AMGOBJPROPCFG
  2
AmgObjPropCfg
  3
"AmgLay|Product Description: AutoCAD Mechanical 2000|Company: Autodesk"
 90
        1
280
     0
281
     0
  0
CLASS
  1
ACME_DOCUMENT
  2
AcMeDbDoc
  3
AcMeServices
 90
        0
280
     0
281
     0
  0
CLASS
  1
ACMESCOPE
  2
AcMeScope
  3
AcMeServices
 90
        0
280
     0
281
     0
  0
CLASS
  1
ACMECOMMANDHISTORY
  2
AcMeCommandHistory
  3
AcMeServices
 90
        0
280
     0
281
     0
  0
CLASS
  1
ACIMSYSVARMAN
  2
AcImSysVarManager
  3
AcMeServices
 90
        0
280
     0
281
     0
  0
CLASS
  1
ACIMINTSYSVAR
  2
AcImIntSysVar
  3
AcMeServices
 90
        0
280
     0
281
     0
  0
CLASS
  1
ACMEDRAWINGMAN
  2
AcMeDrawingMan
  3
AcMeServices
 90
        0
280
     0
281
     0
  0
CLASS
  1
ACMEVIEW
  2
AcMeView
  3
AcMeServices
 90
        0
280
     0
281
     0
  0
CLASS
  1
ACDBENTITYCACHE
  2
AcMeEntityCache
  3
AcMeServices
 90
        0
280
     0
281
     0
  0
CLASS
  1
GSMANAGER
  2
AcMeGSManager
  3
AcMeServices
 90
        0
280
     0
281
     0
  0
CLASS
  1
AMDTINTERNALREACTOR
  2
AmdtInternalReactor
  3
AcMeServices
 90
        0
280
     0
281
     0
  0
CLASS
  1
ACMESTATEMGR
  2
AcMeStateMgr
  3
AcMeServices
 90
        0
280
     0
281
     0
  0
CLASS
  1
ACGREFMASTER
  2
AcGrefMaster
  3
AcAttribServices
 90
        0
280
     0
281
     0
  0
CLASS
  1
AM_DRAWING_MGR
  2
AcDmDwgMgr
  3
AcMechDwgViewMgmt
 90
        0
280
     0
281
     0
  0
CLASS
  1
AM_DWG_DOCUMENT
  2
AcDmDwgDocument
  3
AcMechDwgViewMgmt
 90
        0
280
     0
281
     0
  0
CLASS
  1
AM_DWG_SHEET
  2
AcDmSheet
  3
AcMechDwgViewMgmt
 90
        0
280
     0
281
     0
  0
CLASS
  1
AM_VIEWDIMPARMAP
  2
AcDmViewDimParMap
  3
AcMechDwgViewMgmt
 90
        0
280
     0
281
     0
  0
CLASS
  1
ACIMREALSYSVAR
  2
AcImRealSysVar
  3
AcMeServices
 90
        0
280
     0
281
     0
  0
CLASS
  1
AM_DWGMGR_NAME
  2
AcDmDwgMgrName
  3
AcMechDwgViewMgmt
 90
        0
280
     0
281
     0
  0
CLASS
  1
ACME_DATABASE
  2
AcMeDbDatabase
  3
AcMeServices
 90
        0
280
     0
281
     0
  0
CLASS
  1
ACRFINSADJUSTERMGR
  2
AcRfInsAdjusterMgr
  3
AcMeServices
 90
        0
280
     0
281
     0
  0
CLASS
  1
ACGREFACADMASTER
  2
AcGrefacadMaster
  3
AcGrefServices
 90
        0
280
     0
281
     0
  0
CLASS
  1
AMDTMENUSTATEMGR
  2
AmdtMenuStateMgr
  3
McadcomServices
 90
        0
280
     0
281
     0
  0
CLASS
  1
AMDTMCOMMENUSTATE
  2
AmdtMcomMenuState
  3
McadcomServices
 90
        0
280
     0
281
     0
  0
CLASS
  1
AMIMASTER
  2
AmiMaster
  3
AmiServices
 90
        0
280
     0
281
     0
  0
CLASS
  1
MAPIAMMOUDLE
  2
MApiAmModule
  3
MApiAmServices
 90
        0
280
     0
281
     0
  0
CLASS
  1
AMDTADMENUSTATE
  2
AmdtAdMenuState
  3
DesignerServices
 90
        0
280
     0
281
     0
  0
CLASS
  1
ADAPPL
  2
AcAdAppl
  3
DesignerServices
 90
        0
280
     0
281
     0
  0
CLASS
  1
DEPMGR
  2
AcAdDepMgr
  3
DesignerServices
 90
        0
280
     0
281
     0
  0
CLASS
  1
PARAMMGR
  2
AcAdParamMgr
  3
DesignerServices
 90
        0
280
     0
281
     0
  0
CLASS
  1
PARAMSCOPE
  2
AcAdParamScope
  3
DesignerServices
 90
        0
280
     0
281
     0
  0
CLASS
  1
NAMEDAPPL
  2
AcAdNamedAppl
  3
DesignerServices
 90
        0
280
     0
281
     0
  0
CLASS
  1
AMDTDMMENUSTATE
  2
AmdtDmMenuState
  3
AcMechDwgViewMgmt
 90
        0
280
     0
281
     0
  0
CLASS
  1
AMDTAMMENUSTATE
  2
AmdtAmMenuState
  3
DesignerAssemblies
 90
        0
280
     0
281
     0
  0
CLASS
  1
ACIMSTRSYSVAR
  2
AcImStrSysVar
  3
AcMeServices
 90
        0
280
     0
281
     0
  0
CLASS
  1
ACAMPROJECT
  2
AcAmProject
  3
DesignerAssemblies
 90
        0
280
     0
281
     0
  0
CLASS
  1
ACAMGRCOMPDEF
  2
AcAmGrCompDef
  3
DesignerAssemblies
 90
        0
280
     0
281
     0
  0
CLASS
  1
ACCMCONTEXT
  2
AcCmContext
  3
DesignerAssemblies
 90
        0
280
     0
281
     0
  0
CLASS
  1
ACAMCOMPDEF
  2
AcAmCompDef
  3
DesignerAssemblies
 90
        0
280
     0
281
     0
  0
CLASS
  1
ACAMCOMPDEFMGR
  2
AcAmCompDefMgr
  3
DesignerAssemblies
 90
        0
280
     0
281
     0
  0
CLASS
  1
AMCONTEXTMGR
  2
AcAmContextMgr
  3
DesignerAssemblies
 90
        0
280
     0
281
     0
  0
CLASS
  1
ACAMCONTEXTMODELER
  2
AcAmContextModeler
  3
DesignerAssemblies
 90
        0
280
     0
281
     0
  0
CLASS
  1
ACMDATADICTIONARY
  2
AcmDataDictionary
  3
"AcmSymBB|Product Description: AutoCAD Mechanical 2004 DX|Company: Autodesk"
 90
        0
280
     0
281
     0
  0
CLASS
  1
CATALOGSTATE
  2
AcAmCatalogState
  3
DesignerAssemblies
 90
        0
280
     0
281
     0
  0
CLASS
  1
ACAMGRCOMPDEFSET
  2
AcAmGrCompDefSet
  3
DesignerAssemblies
 90
        0
280
     0
281
     0
  0
CLASS
  1
AMDTBROWSERDBTAB
  2
AmdtBrowserDbTab
  3
McadcomServices
 90
        0
280
     0
281
     0
  0
CLASS
  1
CBROWSERAPPOBJECT
  2
CBrowserAppObject
  3
McadcomServices
 90
        0
280
     0
281
     0
  0
CLASS
  1
DM_PLACEHOLDER
  2
AcDmSelsetPlaceholder
  3
AcMechDwgViewMgmt
 90
        0
280
     0
281
     0
  0
CLASS
  1
ACMSTANDARDDIN
  2
AcmStandardDIN
  3
"Amdt_StdImp|Product Description: AutoCAD Mechanical 2004 DX|Company: Autodesk"
 90
    32768
280
     0
281
     0
  0
CLASS
  1
AMDTEDGESTANDARDDIN
  2
AmdtEdgeStdDIN
  3
"Amdt_StdImp|Product Description: AutoCAD Mechanical 2004 DX|Company: Autodesk"
 90
    32768
280
     0
281
     0
  0
CLASS
  1
ACMSURFSTANDARDDIN
  2
AcmSurfTextStdDIN
  3
"Amdt_StdImp|Product Description: AutoCAD Mechanical 2004 DX|Company: Autodesk"
 90
    32768
280
     0
281
     0
  0
CLASS
  1
ACMFCFSTANDARDDIN
  2
AcmFCFStdDIN
  3
"Amdt_StdImp|Product Description: AutoCAD Mechanical 2004 DX|Company: Autodesk"
 90
    32768
280
     0
281
     0
  0
CLASS
  1
ACMWELDSTANDARDDIN
  2
AcmWeldingStdDIN
  3
"Amdt_StdImp|Product Description: AutoCAD Mechanical 2004 DX|Company: Autodesk"
 90
    32768
280
     0
281
     0
  0
CLASS
  1
ACMIDSTANDARDDIN
  2
AcmIdStdDIN
  3
"Amdt_StdImp|Product Description: AutoCAD Mechanical 2004 DX|Company: Autodesk"
 90
    32768
280
     0
281
     0
  0
CLASS
  1
ACMDATUMSTANDARDDIN
  2
AcmDatumStdDIN
  3
"Amdt_StdImp|Product Description: AutoCAD Mechanical 2004 DX|Company: Autodesk"
 90
    32768
280
     0
281
     0
  0
CLASS
  1
ACMBOMSTANDARDDIN
  2
AcmBOMStdDIN
  3
"Amdt_StdImp|Product Description: AutoCAD Mechanical 2004 DX|Company: Autodesk"
 90
    32768
280
     0
281
     0
  0
CLASS
  1
ACMDETAILSTANDARDDIN
  2
AmdtDetailSymStdDIN
  3
"Amdt_StdImp|Product Description: AutoCAD Mechanical 2004 DX|Company: Autodesk"
 90
    32768
280
     0
281
     0
  0
CLASS
  1
ACMSECTIONSTANDARDDIN
  2
AmdtSectionSymStdDIN
  3
"Amdt_StdImp|Product Description: AutoCAD Mechanical 2004 DX|Company: Autodesk"
 90
    32768
280
     0
281
     0
  0
CLASS
  1
ACMCENTERLINESTANDARDDIN
  2
AmdtCenterLineStdDIN
  3
"Amdt_StdImp|Product Description: AutoCAD Mechanical 2004 DX|Company: Autodesk"
 90
    32768
280
     0
281
     0
  0
CLASS
  1
ACMTHREADLINESTANDARDDIN
  2
AmdtThreadLineStdDIN
  3
"Amdt_StdImp|Product Description: AutoCAD Mechanical 2004 DX|Company: Autodesk"
 90
    32768
280
     0
281
     0
  0
CLASS
  1
ACMNOTESTANDARDDIN
  2
AmdtNoteStdDIN
  3
"Amdt_StdImp|Product Description: AutoCAD Mechanical 2004 DX|Company: Autodesk"
 90
    32768
280
     0
281
     0
  0
CLASS
  1
AMDTNOTETEMPLATEDB
  2
AmdtNoteTemplateDB
  3
AMDT_STDIMP_MODULE_NAME
 90
    32768
280
     0
281
     0
  0
CLASS
  1
ACAMGLAYSTD
  2
AcAmgLayStd
  3
"AcAmgLayStd|Product Description: AutoCAD Mechanical 2000|Company: Autodesk"
 90
        0
280
     0
281
     0
  0
CLASS
  1
ACAMGDIMSTD
  2
AcAmgDimStd
  3
"AcAmgDimStd|Product Description: AutoCAD Mechanical 2000|Company: Autodesk"
 90
        0
280
     0
281
     0
  0
CLASS
  1
ACAMGHOLECHARTSTDDIN
  2
AcAmgHoleChartStdDIN
  3
ACMSYMBB_MODULE_NAME
 90
    32768
280
     0
281
     0
  0
CLASS
  1
ACAMGTITLESTD
  2
AcAmgTitleStd
  3
"TITLEAPP"
 90
        0
280
     0
281
     0
  0
CLASS
  1
ACMSTANDARDISO
  2
AcmStandardISO
  3
"Amdt_StdImp|Product Description: AutoCAD Mechanical 2004 DX|Company: Autodesk"
 90
        0
280
     0
281
     0
  0
CLASS
  1
AMDTEDGESTANDARDISO
  2
AmdtEdgeStdISO
  3
"Amdt_StdImp|Product Description: AutoCAD Mechanical 2004 DX|Company: Autodesk"
 90
        0
280
     0
281
     0
  0
CLASS
  1
ACMSURFSTANDARDISO
  2
AcmSurfTextStdISO
  3
"Amdt_StdImp|Product Description: AutoCAD Mechanical 2004 DX|Company: Autodesk"
 90
        0
280
     0
281
     0
  0
CLASS
  1
ACMFCFSTANDARDISO
  2
AcmFCFStdISO
  3
"Amdt_StdImp|Product Description: AutoCAD Mechanical 2004 DX|Company: Autodesk"
 90
        0
280
     0
281
     0
  0
CLASS
  1
ACMWELDSTANDARDISO
  2
AcmWeldingStdISO
  3
"Amdt_StdImp|Product Description: AutoCAD Mechanical 2004 DX|Company: Autodesk"
 90
        0
280
     0
281
     0
  0
CLASS
  1
ACMIDSTANDARDISO
  2
AcmIdStdISO
  3
"Amdt_StdImp|Product Description: AutoCAD Mechanical 2004 DX|Company: Autodesk"
 90
        0
280
     0
281
     0
  0
CLASS
  1
ACMDATUMSTANDARDISO
  2
AcmDatumStdISO
  3
"Amdt_StdImp|Product Description: AutoCAD Mechanical 2004 DX|Company: Autodesk"
 90
        0
280
     0
281
     0
  0
CLASS
  1
ACMBOMSTANDARDISO
  2
AcmBOMStdISO
  3
"Amdt_StdImp|Product Description: AutoCAD Mechanical 2004 DX|Company: Autodesk"
 90
        0
280
     0
281
     0
  0
CLASS
  1
ACMDETAILSTANDARDISO
  2
AmdtDetailSymStdISO
  3
"Amdt_StdImp|Product Description: AutoCAD Mechanical 2004 DX|Company: Autodesk"
 90
        0
280
     0
281
     0
  0
CLASS
  1
ACMSECTIONSTANDARDISO
  2
AmdtSectionSymStdISO
  3
"Amdt_StdImp|Product Description: AutoCAD Mechanical 2004 DX|Company: Autodesk"
 90
        0
280
     0
281
     0
  0
CLASS
  1
ACMCENTERLINESTANDARDISO
  2
AmdtCenterLineStdISO
  3
"Amdt_StdImp|Product Description: AutoCAD Mechanical 2004 DX|Company: Autodesk"
 90
        0
280
     0
281
     0
  0
CLASS
  1
ACMTHREADLINESTANDARDISO
  2
AmdtThreadLineStdISO
  3
"Amdt_StdImp|Product Description: AutoCAD Mechanical 2004 DX|Company: Autodesk"
 90
        0
280
     0
281
     0
  0
CLASS
  1
ACMNOTESTANDARDISO
  2
AmdtNoteStdISO
  3
"Amdt_StdImp|Product Description: AutoCAD Mechanical 2004 DX|Company: Autodesk"
 90
        0
280
     0
281
     0
  0
CLASS
  1
ACAMGHOLECHARTSTDISO
  2
AcAmgHoleChartStdISO
  3
ACMSYMBB_MODULE_NAME
 90
        0
280
     0
281
     0
  0
CLASS
  1
ACAMGFILTERDAT
  2
AcAmgFilterDat
  3
"AcadM|Product Description: AutoCAD Mechanical 2000|Company: Autodesk"
 90
    32768
280
     0
281
     0
  0
CLASS
  1
ACMSURFSYM
  2
AcmSurfaceTexture
  3
"AcmSymBB|Product Description: AutoCAD Mechanical 2004 DX|Company: Autodesk"
 90
    33791
280
     0
281
     1
  0
CLASS
  1
ACMDATAENTRYBLOCK
  2
AcmDataEntryBlock
  3
"AcmSymBB|Product Description: AutoCAD Mechanical 2004 DX|Company: Autodesk"
 90
    32768
280
     0
281
     0
  0
CLASS
  1
LAYER_INDEX
  2
AcDbLayerIndex
  3
ObjectDBX Classes
 90
        0
280
     0
281
     0
  0
CLASS
  1
IDBUFFER
  2
AcDbIdBuffer
  3
ObjectDBX Classes
 90
        0
280
     0
281
     0
  0
CLASS
  1
AMDTFORMULAUPDATEDISPATCHER
  2
AmdtFormulaUpdateDispatcher
  3
AcMeServices
 90
    32768
280
     0
281
     0
  0
CLASS
  1
ACRFATTGENMGR
  2
AcRfAttGeneralMgr
  3
AcAttribServices
 90
        0
280
     0
281
     0
  0
CLASS
  1
ACDBLINERES
  2
AcDbLineRes
  3
AcGrefServices
 90
    32768
280
     0
281
     0
  0
CLASS
  1
AMDTNOTE
  2
AmdtNote
  3
"AcmSymBB|Product Description: AutoCAD Mechanical 2004 DX|Company: Autodesk"
 90
    33791
280
     0
281
     1
  0
ENDSEC
  0
SECTION
  2
TABLES
  0
TABLE
  2
VPORT
  5
8
330
0
100
AcDbSymbolTable
 70
     7
  0
VPORT
  5
A7C
330
8
100
AcDbSymbolTableRecord
100
AcDbViewportTableRecord
  2
*Active
 70
     0
 10
0.0
 20
0.0
 11
1.0
 21
1.0
 12
290.236077990381
 22
194.223642915133
 13
0.0
 23
0.0
 14
2.5
 24
2.5
 15
10.0
 25
10.0
 16
0.0
 26
0.0
 36
1.0
 17
0.0
 27
0.0
 37
0.0
 40
450.626803183497
 41
1.712698412698412
 42
50.0
 43
0.0
 44
0.0
 50
0.0
 51
0.0
 71
    16
 72
   100
 73
     1
 74
     1
 75
     0
 76
     0
 77
     0
 78
     0
281
     0
 65
     1
110
0.0
120
0.0
130
0.0
111
1.0
121
0.0
131
0.0
112
0.0
122
1.0
132
0.0
 79
     0
146
0.0
  0
ENDTAB
  0
TABLE
  2
LTYPE
  5
5
330
0
100
AcDbSymbolTable
 70
    78
  0
LTYPE
  5
14
330
5
100
AcDbSymbolTableRecord
100
AcDbLinetypeTableRecord
  2
ByBlock
 70
     0
  3

 72
    65
 73
     0
 40
0.0
  0
LTYPE
  5
15
330
5
100
AcDbSymbolTableRecord
100
AcDbLinetypeTableRecord
  2
ByLayer
 70
     0
  3

 72
    65
 73
     0
 40
0.0
  0
LTYPE
  5
16
330
5
100
AcDbSymbolTableRecord
100
AcDbLinetypeTableRecord
  2
Continuous
 70
     0
  3
Solid line
 72
    65
 73
     0
 40
0.0
  0
LTYPE
  5
2A
330
5
100
AcDbSymbolTableRecord
100
AcDbLinetypeTableRecord
  2
Section_View_Lines
 70
     0
  3
Section View Lines
 72
    65
 73
     4
 40
0.8406
 49
0.6614
 74
     0
 49
-0.0827
 74
     0
 49
0.0138
 74
     0
 49
-0.0827
 74
     0
  0
LTYPE
  5
2B
330
5
100
AcDbSymbolTableRecord
100
AcDbLinetypeTableRecord
  2
CHAIN
 70
     0
  3
Chain ____ _ ____ _ ____ _ ____ _ ____ _ ____
 72
    65
 73
     4
 40
0.3543
 49
0.2362
 74
     0
 49
-0.0295
 74
     0
 49
0.0591
 74
     0
 49
-0.0295
 74
     0
  0
LTYPE
  5
2C
330
5
100
AcDbSymbolTableRecord
100
AcDbLinetypeTableRecord
  2
DASH_DOT
 70
     0
  3
Dash dot _._._._._._._._._._._._._._._.
 72
    65
 73
     4
 40
0.37
 49
0.24
 74
     0
 49
-0.06
 74
     0
 49
0.01
 74
     0
 49
-0.06
 74
     0
  0
LTYPE
  5
2D
330
5
100
AcDbSymbolTableRecord
100
AcDbLinetypeTableRecord
  2
DASH_DOUBLE_DOT
 70
     0
  3
Dash Double Dot __ __ . __ __ . __ __ . __ _
 72
    65
 73
     6
 40
0.4398000000000001
 49
0.24
 74
     0
 49
-0.06
 74
     0
 49
0.0098
 74
     0
 49
-0.06
 74
     0
 49
0.01
 74
     0
 49
-0.06
 74
     0
  0
LTYPE
  5
2E
330
5
100
AcDbSymbolTableRecord
100
AcDbLinetypeTableRecord
  2
DASH_TRIPLE_DOT
 70
     0
  3
Dash Triple-Dot _ . . . _ . . . _ . . . _
 72
    65
 73
     8
 40
0.51
 49
0.24
 74
     0
 49
-0.06
 74
     0
 49
0.01
 74
     0
 49
-0.06
 74
     0
 49
0.01
 74
     0
 49
-0.06
 74
     0
 49
0.01
 74
     0
 49
-0.06
 74
     0
  0
LTYPE
  5
2F
330
5
100
AcDbSymbolTableRecord
100
AcDbLinetypeTableRecord
  2
DASHED
 70
     0
  3
Dashed __ __ __ __ __ __ __ __ __ __ __ __ __ _
 72
    65
 73
     2
 40
0.2067
 49
0.1654
 74
     0
 49
-0.0413
 74
     0
  0
LTYPE
  5
30
330
5
100
AcDbSymbolTableRecord
100
AcDbLinetypeTableRecord
  2
DASHED_SPACE
 70
     0
  3
Dashed Space _._._._._._._._._._._._._._._.
 72
    65
 73
     2
 40
0.2067
 49
0.1654
 74
     0
 49
-0.0413
 74
     0
  0
LTYPE
  5
31
330
5
100
AcDbSymbolTableRecord
100
AcDbLinetypeTableRecord
  2
DOTTED
 70
     0
  3
Dotted . . . . . . . . . . . . . . . . . . . . 
 72
    65
 73
     2
 40
0.0482
 49
0.0069
 74
     0
 49
-0.0413
 74
     0
  0
LTYPE
  5
32
330
5
100
AcDbSymbolTableRecord
100
AcDbLinetypeTableRecord
  2
DOUBLE_DASH_CHAIN
 70
     0
  3
Double Dash Chain ___ _ _ ___ _ _ ___ _ _ ___ _
 72
    65
 73
     6
 40
1.240299999999997
 49
0.6614
 74
     0
 49
-0.0827
 74
     0
 49
0.1654
 74
     0
 49
-0.0827
 74
     0
 49
0.1654
 74
     0
 49
-0.0827
 74
     0
  0
LTYPE
  5
33
330
5
100
AcDbSymbolTableRecord
100
AcDbLinetypeTableRecord
  2
DOUBLE_DASH_DOT
 70
     0
  3
Double Dash Dot __ __ . __ __ . __ __ . __ _
 72
    65
 73
     6
 40
0.6700000000000001
 49
0.24
 74
     0
 49
-0.06
 74
     0
 49
0.24
 74
     0
 49
-0.06
 74
     0
 49
0.01
 74
     0
 49
-0.06
 74
     0
  0
LTYPE
  5
34
330
5
100
AcDbSymbolTableRecord
100
AcDbLinetypeTableRecord
  2
DOUBLE_DASH_DOUBLE_DOT
 70
     0
  3
Double-dash double-dot _ _ . . _ _ . . _
 72
    65
 73
     8
 40
0.7400000000000003
 49
0.24
 74
     0
 49
-0.06
 74
     0
 49
0.24
 74
     0
 49
-0.06
 74
     0
 49
0.01
 74
     0
 49
-0.06
 74
     0
 49
0.01
 74
     0
 49
-0.06
 74
     0
  0
LTYPE
  5
35
330
5
100
AcDbSymbolTableRecord
100
AcDbLinetypeTableRecord
  2
DOUBLE_DASH_TRIPLE_DOT
 70
     0
  3
Double Dash Triple Dot __ __ . . . __ __ . . .
 72
    65
 73
    10
 40
0.8100000000000001
 49
0.24
 74
     0
 49
-0.06
 74
     0
 49
0.24
 74
     0
 49
-0.06
 74
     0
 49
0.01
 74
     0
 49
-0.06
 74
     0
 49
0.01
 74
     0
 49
-0.06
 74
     0
 49
0.01
 74
     0
 49
-0.06
 74
     0
  0
LTYPE
  5
36
330
5
100
AcDbSymbolTableRecord
100
AcDbLinetypeTableRecord
  2
LONG_DASH_DOTTED
 70
     0
  3
Long-Dash Dot ____ . ____ . ____ . ____ . _
 72
    65
 73
     4
 40
0.3001
 49
0.2362
 74
     0
 49
-0.0295
 74
     0
 49
0.0049
 74
     0
 49
-0.0295
 74
     0
  0
LTYPE
  5
37
330
5
100
AcDbSymbolTableRecord
100
AcDbLinetypeTableRecord
  2
LONG_DASH_DOUBLE_DOT
 70
     0
  3
Long Dash Double Dot ____ . . ____ . . ____ . .
 72
    65
 73
     6
 40
0.3345
 49
0.2362
 74
     0
 49
-0.0295
 74
     0
 49
0.0049
 74
     0
 49
-0.0295
 74
     0
 49
0.0049
 74
     0
 49
-0.0295
 74
     0
  0
LTYPE
  5
38
330
5
100
AcDbSymbolTableRecord
100
AcDbLinetypeTableRecord
  2
LONG_DASH_TRIPLE_DOT
 70
     0
  3
Long Dash Triple Dot ____ ... ____ ... ____
 72
    65
 73
     8
 40
0.75
 49
0.48
 74
     0
 49
-0.06
 74
     0
 49
0.01
 74
     0
 49
-0.06
 74
     0
 49
0.01
 74
     0
 49
-0.06
 74
     0
 49
0.01
 74
     0
 49
-0.06
 74
     0
  0
LTYPE
  5
39
330
5
100
AcDbSymbolTableRecord
100
AcDbLinetypeTableRecord
  2
BORDER
 70
     0
  3
Border __ __ . __ __ . __ __ . __ __ . __ __ .
 72
    65
 73
     6
 40
44.45
 49
12.7
 74
     0
 49
-6.349999999999997
 74
     0
 49
12.7
 74
     0
 49
-6.349999999999997
 74
     0
 49
0.0
 74
     0
 49
-6.349999999999997
 74
     0
  0
LTYPE
  5
3A
330
5
100
AcDbSymbolTableRecord
100
AcDbLinetypeTableRecord
  2
BORDER2
 70
     0
  3
Border (.5x) __.__.__.__.__.__.__.__.__.__.__.
 72
    65
 73
     6
 40
22.225
 49
6.349999999999997
 74
     0
 49
-3.174999999999998
 74
     0
 49
6.349999999999997
 74
     0
 49
-3.174999999999998
 74
     0
 49
0.0
 74
     0
 49
-3.174999999999998
 74
     0
  0
LTYPE
  5
3B
330
5
100
AcDbSymbolTableRecord
100
AcDbLinetypeTableRecord
  2
BORDERX2
 70
     0
  3
Border (2x) ____  ____  .  ____  ____  .  ___
 72
    65
 73
     6
 40
88.9
 49
25.4
 74
     0
 49
-12.7
 74
     0
 49
25.4
 74
     0
 49
-12.7
 74
     0
 49
0.0
 74
     0
 49
-12.7
 74
     0
  0
LTYPE
  5
3C
330
5
100
AcDbSymbolTableRecord
100
AcDbLinetypeTableRecord
  2
CENTER
 70
     0
  3
__ . __
 72
    65
 73
     4
 40
7.0
 49
4.0
 74
     0
 49
-1.0
 74
     0
 49
1.0
 74
     0
 49
-1.0
 74
     0
  0
LTYPE
  5
3D
330
5
100
AcDbSymbolTableRecord
100
AcDbLinetypeTableRecord
  2
CENTER2
 70
     0
  3
Center (.5x) ___ _ ___ _ ___ _ ___ _ ___ _ ___
 72
    65
 73
     4
 40
28.575
 49
19.05
 74
     0
 49
-3.174999999999998
 74
     0
 49
3.174999999999998
 74
     0
 49
-3.174999999999998
 74
     0
  0
LTYPE
  5
3E
330
5
100
AcDbSymbolTableRecord
100
AcDbLinetypeTableRecord
  2
CENTERX2
 70
     0
  3
Center (2x) ________  __  ________  __  _____
 72
    65
 73
     4
 40
101.6
 49
63.5
 74
     0
 49
-12.7
 74
     0
 49
12.7
 74
     0
 49
-12.7
 74
     0
  0
LTYPE
  5
3F
330
5
100
AcDbSymbolTableRecord
100
AcDbLinetypeTableRecord
  2
DASHDOT2
 70
     0
  3
Dash dot (.5x) _._._._._._._._._._._._._._._.
 72
    65
 73
     4
 40
12.7
 49
6.349999999999997
 74
     0
 49
-3.174999999999998
 74
     0
 49
0.0
 74
     0
 49
-3.174999999999998
 74
     0
  0
LTYPE
  5
40
330
5
100
AcDbSymbolTableRecord
100
AcDbLinetypeTableRecord
  2
DASHDOTX2
 70
     0
  3
Dash dot (2x) ____  .  ____  .  ____  .  ___
 72
    65
 73
     4
 40
50.8
 49
25.4
 74
     0
 49
-12.7
 74
     0
 49
0.0
 74
     0
 49
-12.7
 74
     0
  0
LTYPE
  5
41
330
5
100
AcDbSymbolTableRecord
100
AcDbLinetypeTableRecord
  2
DASHED2
 70
     0
  3
Dashed (.5x) _ _ _ _ _ _ _ _ _ _ _ _ _ _ _ _ _
 72
    65
 73
     2
 40
9.524999999999996
 49
6.349999999999997
 74
     0
 49
-3.174999999999998
 74
     0
  0
LTYPE
  5
42
330
5
100
AcDbSymbolTableRecord
100
AcDbLinetypeTableRecord
  2
DASHEDX2
 70
     0
  3
Dashed (2x) ____  ____  ____  ____  ____  ___
 72
    65
 73
     2
 40
38.1
 49
25.4
 74
     0
 49
-12.7
 74
     0
  0
LTYPE
  5
43
330
5
100
AcDbSymbolTableRecord
100
AcDbLinetypeTableRecord
  2
DIVIDE
 70
     0
  3
Divide ____ . . ____ . . ____ . . ____ . . ____
 72
    65
 73
     6
 40
31.75
 49
12.7
 74
     0
 49
-6.349999999999997
 74
     0
 49
0.0
 74
     0
 49
-6.349999999999997
 74
     0
 49
0.0
 74
     0
 49
-6.349999999999997
 74
     0
  0
LTYPE
  5
44
330
5
100
AcDbSymbolTableRecord
100
AcDbLinetypeTableRecord
  2
DIVIDE2
 70
     0
  3
Divide (.5x) __..__..__..__..__..__..__..__.._
 72
    65
 73
     6
 40
15.875
 49
6.349999999999997
 74
     0
 49
-3.174999999999998
 74
     0
 49
0.0
 74
     0
 49
-3.174999999999998
 74
     0
 49
0.0
 74
     0
 49
-3.174999999999998
 74
     0
  0
LTYPE
  5
45
330
5
100
AcDbSymbolTableRecord
100
AcDbLinetypeTableRecord
  2
DIVIDEX2
 70
     0
  3
Divide (2x) ________  .  .  ________  .  .  _
 72
    65
 73
     6
 40
63.49999999999999
 49
25.4
 74
     0
 49
-12.7
 74
     0
 49
0.0
 74
     0
 49
-12.7
 74
     0
 49
0.0
 74
     0
 49
-12.7
 74
     0
  0
LTYPE
  5
46
330
5
100
AcDbSymbolTableRecord
100
AcDbLinetypeTableRecord
  2
DOT
 70
     0
  3
Dot . . . . . . . . . . . . . . . . . . . . . .
 72
    65
 73
     2
 40
6.349999999999997
 49
0.0
 74
     0
 49
-6.349999999999997
 74
     0
  0
LTYPE
  5
47
330
5
100
AcDbSymbolTableRecord
100
AcDbLinetypeTableRecord
  2
DOT2
 70
     0
  3
Dot (.5x) .....................................
 72
    65
 73
     2
 40
3.174999999999998
 49
0.0
 74
     0
 49
-3.174999999999998
 74
     0
  0
LTYPE
  5
48
330
5
100
AcDbSymbolTableRecord
100
AcDbLinetypeTableRecord
  2
DOTX2
 70
     0
  3
Dot (2x) .  .  .  .  .  .  .  .  .  .  .  .  . 
 72
    65
 73
     2
 40
12.7
 49
0.0
 74
     0
 49
-12.7
 74
     0
  0
LTYPE
  5
49
330
5
100
AcDbSymbolTableRecord
100
AcDbLinetypeTableRecord
  2
HIDDEN
 70
     0
  3
Hidden __ __ __ __ __ __ __ __ __ __ __ __ __ _
 72
    65
 73
     2
 40
9.524999999999996
 49
6.349999999999997
 74
     0
 49
-3.174999999999998
 74
     0
  0
LTYPE
  5
4A
330
5
100
AcDbSymbolTableRecord
100
AcDbLinetypeTableRecord
  2
HIDDEN2
 70
     0
  3
Hidden (.5x) _ _ _ _ _ _ _ _ _ _ _ _ _ _ _ _ _
 72
    65
 73
     2
 40
4.762499999999998
 49
3.174999999999998
 74
     0
 49
-1.587499999999999
 74
     0
  0
LTYPE
  5
4B
330
5
100
AcDbSymbolTableRecord
100
AcDbLinetypeTableRecord
  2
HIDDENX2
 70
     0
  3
Hidden (2x) ____ ____ ____ ____ ____ ____ ____
 72
    65
 73
     2
 40
19.05
 49
12.7
 74
     0
 49
-6.349999999999997
 74
     0
  0
LTYPE
  5
4C
330
5
100
AcDbSymbolTableRecord
100
AcDbLinetypeTableRecord
  2
PHANTOM
 70
     0
  3
Phantom ______  __  __  ______  __  __  ______
 72
    65
 73
     6
 40
63.5
 49
31.75
 74
     0
 49
-6.349999999999997
 74
     0
 49
6.349999999999997
 74
     0
 49
-6.349999999999997
 74
     0
 49
6.349999999999997
 74
     0
 49
-6.349999999999997
 74
     0
  0
LTYPE
  5
4D
330
5
100
AcDbSymbolTableRecord
100
AcDbLinetypeTableRecord
  2
PHANTOM2
 70
     0
  3
Phantom (.5x) ___ _ _ ___ _ _ ___ _ _ ___ _ _
 72
    65
 73
     6
 40
31.75
 49
15.875
 74
     0
 49
-3.174999999999998
 74
     0
 49
3.174999999999998
 74
     0
 49
-3.174999999999998
 74
     0
 49
3.174999999999998
 74
     0
 49
-3.174999999999998
 74
     0
  0
LTYPE
  5
4E
330
5
100
AcDbSymbolTableRecord
100
AcDbLinetypeTableRecord
  2
PHANTOMX2
 70
     0
  3
Phantom (2x) ____________    ____    ____   _
 72
    65
 73
     6
 40
127.0
 49
63.5
 74
     0
 49
-12.7
 74
     0
 49
12.7
 74
     0
 49
-12.7
 74
     0
 49
12.7
 74
     0
 49
-12.7
 74
     0
  0
LTYPE
  5
4F
330
5
100
AcDbSymbolTableRecord
100
AcDbLinetypeTableRecord
  2
ACAD_ISO02W100
 70
     0
  3
ISO dash __ __ __ __ __ __ __ __ __ __ __ __ __
 72
    65
 73
     2
 40
15.0
 49
12.0
 74
     0
 49
-3.0
 74
     0
  0
LTYPE
  5
50
330
5
100
AcDbSymbolTableRecord
100
AcDbLinetypeTableRecord
  2
ACAD_ISO03W100
 70
     0
  3
ISO dash space __    __    __    __    __    __
 72
    65
 73
     2
 40
30.0
 49
12.0
 74
     0
 49
-18.0
 74
     0
  0
LTYPE
  5
51
330
5
100
AcDbSymbolTableRecord
100
AcDbLinetypeTableRecord
  2
ACAD_ISO04W100
 70
     0
  3
ISO long-dash dot ____ . ____ . ____ . ____ . _
 72
    65
 73
     4
 40
30.0
 49
24.0
 74
     0
 49
-3.0
 74
     0
 49
0.0
 74
     0
 49
-3.0
 74
     0
  0
LTYPE
  5
52
330
5
100
AcDbSymbolTableRecord
100
AcDbLinetypeTableRecord
  2
ACAD_ISO05W100
 70
     0
  3
ISO long-dash double-dot ____ .. ____ .. ____ .
 72
    65
 73
     6
 40
33.0
 49
24.0
 74
     0
 49
-3.0
 74
     0
 49
0.0
 74
     0
 49
-3.0
 74
     0
 49
0.0
 74
     0
 49
-3.0
 74
     0
  0
LTYPE
  5
53
330
5
100
AcDbSymbolTableRecord
100
AcDbLinetypeTableRecord
  2
ACAD_ISO06W100
 70
     0
  3
ISO long-dash triple-dot ____ ... ____ ... ____
 72
    65
 73
     8
 40
36.0
 49
24.0
 74
     0
 49
-3.0
 74
     0
 49
0.0
 74
     0
 49
-3.0
 74
     0
 49
0.0
 74
     0
 49
-3.0
 74
     0
 49
0.0
 74
     0
 49
-3.0
 74
     0
  0
LTYPE
  5
54
330
5
100
AcDbSymbolTableRecord
100
AcDbLinetypeTableRecord
  2
ACAD_ISO07W100
 70
     0
  3
ISO dot . . . . . . . . . . . . . . . . . . . .
 72
    65
 73
     2
 40
3.0
 49
0.0
 74
     0
 49
-3.0
 74
     0
  0
LTYPE
  5
55
330
5
100
AcDbSymbolTableRecord
100
AcDbLinetypeTableRecord
  2
ACAD_ISO08W100
 70
     0
  3
ISO long-dash short-dash ____ __ ____ __ ____ _
 72
    65
 73
     4
 40
36.0
 49
24.0
 74
     0
 49
-3.0
 74
     0
 49
6.0
 74
     0
 49
-3.0
 74
     0
  0
LTYPE
  5
56
330
5
100
AcDbSymbolTableRecord
100
AcDbLinetypeTableRecord
  2
ACAD_ISO09W100
 70
     0
  3
ISO long-dash double-short-dash ____ __ __ ____
 72
    65
 73
     6
 40
45.0
 49
24.0
 74
     0
 49
-3.0
 74
     0
 49
6.0
 74
     0
 49
-3.0
 74
     0
 49
6.0
 74
     0
 49
-3.0
 74
     0
  0
LTYPE
  5
57
330
5
100
AcDbSymbolTableRecord
100
AcDbLinetypeTableRecord
  2
ACAD_ISO10W100
 70
     0
  3
ISO dash dot __ . __ . __ . __ . __ . __ . __ .
 72
    65
 73
     4
 40
18.0
 49
12.0
 74
     0
 49
-3.0
 74
     0
 49
0.0
 74
     0
 49
-3.0
 74
     0
  0
LTYPE
  5
58
330
5
100
AcDbSymbolTableRecord
100
AcDbLinetypeTableRecord
  2
ACAD_ISO11W100
 70
     0
  3
ISO double-dash dot __ __ . __ __ . __ __ . __ 
 72
    65
 73
     6
 40
33.0
 49
12.0
 74
     0
 49
-3.0
 74
     0
 49
12.0
 74
     0
 49
-3.0
 74
     0
 49
0.0
 74
     0
 49
-3.0
 74
     0
  0
LTYPE
  5
59
330
5
100
AcDbSymbolTableRecord
100
AcDbLinetypeTableRecord
  2
ACAD_ISO12W100
 70
     0
  3
ISO dash double-dot __ . . __ . . __ . . __ . .
 72
    65
 73
     6
 40
21.0
 49
12.0
 74
     0
 49
-3.0
 74
     0
 49
0.0
 74
     0
 49
-3.0
 74
     0
 49
0.0
 74
     0
 49
-3.0
 74
     0
  0
LTYPE
  5
5A
330
5
100
AcDbSymbolTableRecord
100
AcDbLinetypeTableRecord
  2
ACAD_ISO13W100
 70
     0
  3
ISO double-dash double-dot __ __ . . __ __ . . 
 72
    65
 73
     8
 40
36.0
 49
12.0
 74
     0
 49
-3.0
 74
     0
 49
12.0
 74
     0
 49
-3.0
 74
     0
 49
0.0
 74
     0
 49
-3.0
 74
     0
 49
0.0
 74
     0
 49
-3.0
 74
     0
  0
LTYPE
  5
5B
330
5
100
AcDbSymbolTableRecord
100
AcDbLinetypeTableRecord
  2
ACAD_ISO14W100
 70
     0
  3
ISO dash triple-dot __ . . . __ . . . __ . . . 
 72
    65
 73
     8
 40
24.0
 49
12.0
 74
     0
 49
-3.0
 74
     0
 49
0.0
 74
     0
 49
-3.0
 74
     0
 49
0.0
 74
     0
 49
-3.0
 74
     0
 49
0.0
 74
     0
 49
-3.0
 74
     0
  0
LTYPE
  5
5C
330
5
100
AcDbSymbolTableRecord
100
AcDbLinetypeTableRecord
  2
ACAD_ISO15W100
 70
     0
  3
ISO double-dash triple-dot __ __ . . . __ __ . 
 72
    65
 73
    10
 40
39.0
 49
12.0
 74
     0
 49
-3.0
 74
     0
 49
12.0
 74
     0
 49
-3.0
 74
     0
 49
0.0
 74
     0
 49
-3.0
 74
     0
 49
0.0
 74
     0
 49
-3.0
 74
     0
 49
0.0
 74
     0
 49
-3.0
 74
     0
  0
LTYPE
  5
5F
330
5
100
AcDbSymbolTableRecord
100
AcDbLinetypeTableRecord
  2
FENCELINE1
 70
     0
  3
Fenceline circle ----0-----0----0-----0----0---
 72
    65
 73
     4
 40
36.83
 49
6.349999999999997
 74
     0
 49
-2.54
 74
     4
 75
   133
340
5E
 46
2.54
 50
0.0
 44
-2.54
 45
0.0
 49
-2.54
 74
     0
 49
25.4
 74
     0
  0
LTYPE
  5
60
330
5
100
AcDbSymbolTableRecord
100
AcDbLinetypeTableRecord
  2
FENCELINE2
 70
     0
  3
Fenceline square ----[]-----[]----[]-----[]----
 72
    65
 73
     4
 40
36.83
 49
6.349999999999997
 74
     0
 49
-2.54
 74
     4
 75
   132
340
5E
 46
2.54
 50
0.0
 44
-2.54
 45
0.0
 49
-2.54
 74
     0
 49
25.4
 74
     0
  0
LTYPE
  5
61
330
5
100
AcDbSymbolTableRecord
100
AcDbLinetypeTableRecord
  2
TRACKS
 70
     0
  3
Tracks -|-|-|-|-|-|-|-|-|-|-|-|-|-|-|-|-|-|-|-|
 72
    65
 73
     2
 40
7.62
 49
3.81
 74
     4
 75
   130
340
5E
 46
6.349999999999997
 50
0.0
 44
0.0
 45
0.0
 49
3.81
 74
     0
  0
LTYPE
  5
62
330
5
100
AcDbSymbolTableRecord
100
AcDbLinetypeTableRecord
  2
BATTING
 70
     0
  3
Batting SSSSSSSSSSSSSSSSSSSSSSSSSSSSSSSSSSSSSSS
 72
    65
 73
     4
 40
10.16254
 49
0.00254
 74
     0
 49
-2.54
 74
     4
 75
   134
340
5E
 46
2.54
 50
0.0
 44
-2.54
 45
0.0
 49
-5.08
 74
     4
 75
   134
340
5E
 46
2.54
 50
180.0
 44
2.54
 45
0.0
 49
-2.54
 74
     0
  0
LTYPE
  5
63
330
5
100
AcDbSymbolTableRecord
100
AcDbLinetypeTableRecord
  2
HOT_WATER_SUPPLY
 70
     0
  3
Hot water supply ---- HW ---- HW ---- HW ----
 72
    65
 73
     3
 40
22.86
 49
12.7
 74
     0
 49
-5.08
 74
     2
 75
     0
340
11
 46
2.54
 50
0.0
 44
-2.54
 45
-1.27
  9
HW
 49
-5.08
 74
     0
  0
LTYPE
  5
64
330
5
100
AcDbSymbolTableRecord
100
AcDbLinetypeTableRecord
  2
GAS_LINE
 70
     0
  3
Gas line ----GAS----GAS----GAS----GAS----GAS---
 72
    65
 73
     3
 40
24.13
 49
12.7
 74
     0
 49
-5.08
 74
     2
 75
     0
340
11
 46
2.54
 50
0.0
 44
-2.54
 45
-1.27
  9
GAS
 49
-6.349999999999997
 74
     0
  0
LTYPE
  5
65
330
5
100
AcDbSymbolTableRecord
100
AcDbLinetypeTableRecord
  2
ZIGZAG
 70
     0
  3
Zig zag /\/\/\/\/\/\/\/\/\/\/\/\/\/\/\/\/\/\/\/
 72
    65
 73
     4
 40
20.32254
 49
0.00254
 74
     0
 49
-5.08
 74
     4
 75
   131
340
5E
 46
5.08
 50
0.0
 44
-5.08
 45
0.0
 49
-10.16
 74
     4
 75
   131
340
5E
 46
5.08
 50
180.0
 44
5.08
 45
0.0
 49
-5.08
 74
     0
  0
LTYPE
  5
232
330
5
100
AcDbSymbolTableRecord
100
AcDbLinetypeTableRecord
  2
AM_DIN_F_W050
 70
     0
  3
__ __ __ __ __ __ __ __ __ __ __ __ __ __ __
 72
    65
 73
     2
 40
6.25
 49
4.75
 74
     0
 49
-1.5
 74
     0
  0
LTYPE
  5
233
330
5
100
AcDbSymbolTableRecord
100
AcDbLinetypeTableRecord
  2
AM_DIN_G_W050
 70
     0
  3
____ . ____ . ____ . ____ . ____ . ____ . ____
 72
    65
 73
     4
 40
13.75
 49
9.75
 74
     0
 49
-1.5
 74
     0
 49
1.0
 74
     0
 49
-1.5
 74
     0
  0
LTYPE
  5
234
330
5
100
AcDbSymbolTableRecord
100
AcDbLinetypeTableRecord
  2
AM_DIN_K_W050
 70
     0
  3
_____ . . _____ . . _____ . . ____ .. ____
 72
    65
 73
     6
 40
16.25
 49
9.75
 74
     0
 49
-1.5
 74
     0
 49
1.0
 74
     0
 49
-1.5
 74
     0
 49
1.0
 74
     0
 49
-1.5
 74
     0
  0
LTYPE
  5
235
330
5
100
AcDbSymbolTableRecord
100
AcDbLinetypeTableRecord
  2
Amconstr
 70
     0
  3
_______________________
 72
    65
 73
     2
 40
9999.0
 49
9999.0
 74
     0
 49
0.0
 74
     0
  0
LTYPE
  5
236
330
5
100
AcDbSymbolTableRecord
100
AcDbLinetypeTableRecord
  2
AM_DIN_F_W050x2
 70
     0
  3
 _ _ _ _ _ _ _ _ _ _ _ _
 72
    65
 73
     2
 40
3.125
 49
2.25
 74
     0
 49
-0.875
 74
     0
  0
LTYPE
  5
237
330
5
100
AcDbSymbolTableRecord
100
AcDbLinetypeTableRecord
  2
AM_DIN_G_W050x2
 70
     0
  3
__ . __ . __ . __ . __ . __
 72
    65
 73
     4
 40
6.875
 49
4.75
 74
     0
 49
-0.875
 74
     0
 49
0.375
 74
     0
 49
-0.875
 74
     0
  0
LTYPE
  5
238
330
5
100
AcDbSymbolTableRecord
100
AcDbLinetypeTableRecord
  2
Amzigzag
 70
     0
  3
/\/-/\/-/\/-/\/-/\/-/\/
 72
    65
 73
     2
 40
11.0001
 49
0.0001
 74
     4
 75
   135
340
5E
 46
0.04
 50
0.0
 44
0.0
 45
0.0
 49
-11.0
 74
     0
  0
LTYPE
  5
29A
330
5
100
AcDbSymbolTableRecord
100
AcDbLinetypeTableRecord
  2
ACDINWELD
 70
     0
  3
_ _ _ _ _
 72
    65
 73
     2
 40
2.0
 49
2.0
 74
     0
 49
-1.0
 74
     0
  0
LTYPE
  5
29D
330
5
100
AcDbSymbolTableRecord
100
AcDbLinetypeTableRecord
  2
ACDINTGB
 70
     0
  3
__ . . __ . .
 72
    65
 73
     6
 40
9.0
 49
4.0
 74
     0
 49
-1.0
 74
     0
 49
1.0
 74
     0
 49
-1.0
 74
     0
 49
1.0
 74
     0
 49
-1.0
 74
     0
  0
LTYPE
  5
29E
330
5
100
AcDbSymbolTableRecord
100
AcDbLinetypeTableRecord
  2
ACDINTGL
 70
     0
  3
_ _ _ _ _
 72
    65
 73
     2
 40
3.0
 49
2.0
 74
     0
 49
-1.0
 74
     0
  0
LTYPE
  5
2C8
330
5
100
AcDbSymbolTableRecord
100
AcDbLinetypeTableRecord
  2
ACISOWELD
 70
     0
  3
_ _ _ _ _
 72
    65
 73
     2
 40
2.0
 49
2.0
 74
     0
 49
-1.0
 74
     0
  0
LTYPE
  5
2CB
330
5
100
AcDbSymbolTableRecord
100
AcDbLinetypeTableRecord
  2
ACISOTGB
 70
     0
  3
__ . . __ . .
 72
    65
 73
     6
 40
9.0
 49
4.0
 74
     0
 49
-1.0
 74
     0
 49
1.0
 74
     0
 49
-1.0
 74
     0
 49
1.0
 74
     0
 49
-1.0
 74
     0
  0
LTYPE
  5
2CC
330
5
100
AcDbSymbolTableRecord
100
AcDbLinetypeTableRecord
  2
ACISOTGL
 70
     0
  3
_ _ _ _ _
 72
    65
 73
     2
 40
3.0
 49
2.0
 74
     0
 49
-1.0
 74
     0
  0
LTYPE
  5
2E0
330
5
100
AcDbSymbolTableRecord
100
AcDbLinetypeTableRecord
  2
Amzigzag2
 70
     0
  3
/\/-/\/-/\/-/\/-/\/-/\/
 72
    65
 73
     2
 40
0.4401
 49
0.0001
 74
     4
 75
   135
340
5E
 46
0.0016
 50
0.0
 44
0.0
 45
0.0
 49
-0.4400000000000003
 74
     0
  0
LTYPE
  5
359
330
5
100
AcDbSymbolTableRecord
100
AcDbLinetypeTableRecord
  2
AM_ISO02W050
 70
     0
  3
__ __ __ __ __ __ __ __ __ __ __ __ __ __ __
 72
    65
 73
     2
 40
7.5
 49
6.0
 74
     0
 49
-1.5
 74
     0
  0
LTYPE
  5
35A
330
5
100
AcDbSymbolTableRecord
100
AcDbLinetypeTableRecord
  2
AM_ISO08W050
 70
     0
  3
____ . ____ . ____ . ____ . ____ . ____ . ____
 72
    65
 73
     4
 40
18.0
 49
12.0
 74
     0
 49
-1.5
 74
     0
 49
3.0
 74
     0
 49
-1.5
 74
     0
  0
LTYPE
  5
35B
330
5
100
AcDbSymbolTableRecord
100
AcDbLinetypeTableRecord
  2
AM_ISO09W050
 70
     0
  3
_____ . . _____ . . _____ . . ____ .. ____
 72
    65
 73
     6
 40
22.5
 49
12.0
 74
     0
 49
-1.5
 74
     0
 49
3.0
 74
     0
 49
-1.5
 74
     0
 49
3.0
 74
     0
 49
-1.5
 74
     0
  0
LTYPE
  5
35C
330
5
100
AcDbSymbolTableRecord
100
AcDbLinetypeTableRecord
  2
AM_ISO02W050x2
 70
     0
  3
 _ _ _ _ _ _ _ _ _ _ _ _
 72
    65
 73
     2
 40
3.75
 49
3.0
 74
     0
 49
-0.75
 74
     0
  0
LTYPE
  5
35D
330
5
100
AcDbSymbolTableRecord
100
AcDbLinetypeTableRecord
  2
AM_ISO08W050x2
 70
     0
  3
__ . __ . __ . __ . __ . __
 72
    65
 73
     4
 40
9.0
 49
6.0
 74
     0
 49
-0.75
 74
     0
 49
1.5
 74
     0
 49
-0.75
 74
     0
  0
ENDTAB
  0
TABLE
  2
LAYER
  5
2
102
{ACAD_XDICTIONARY
360
629
102
}
330
0
100
AcDbSymbolTable
 70
    38
  0
LAYER
  5
10
330
2
100
AcDbSymbolTableRecord
100
AcDbLayerTableRecord
  2
0
 70
     0
 62
     7
  6
Continuous
370
    -3
390
F
  0
LAYER
  5
AA
330
2
100
AcDbSymbolTableRecord
100
AcDbLayerTableRecord
  2
Sichtbare Kanten
 70
     0
 62
     7
  6
Continuous
370
    50
390
F
  0
LAYER
  5
AB
330
2
100
AcDbSymbolTableRecord
100
AcDbLayerTableRecord
  2
Verdeckte Kanten
 70
     0
 62
     7
  6
DASHED
370
    35
390
F
  0
LAYER
  5
AC
330
2
100
AcDbSymbolTableRecord
100
AcDbLayerTableRecord
  2
Tangentiale Kanten
 70
     0
 62
     7
  6
Continuous
370
    50
390
F
  0
LAYER
  5
AD
330
2
100
AcDbSymbolTableRecord
100
AcDbLayerTableRecord
  2
Schnittansichtslinien
 70
     0
 62
     7
  6
LONG_DASH_DOTTED
370
    70
390
F
  0
LAYER
  5
AE
330
2
100
AcDbSymbolTableRecord
100
AcDbLayerTableRecord
  2
Detailkreislinien
 70
     0
 62
     7
  6
Continuous
370
    50
390
F
  0
LAYER
  5
AF
330
2
100
AcDbSymbolTableRecord
100
AcDbLayerTableRecord
  2
Bemaßungen
 70
     0
 62
     7
  6
Continuous
370
    25
390
F
  0
LAYER
  5
B0
330
2
100
AcDbSymbolTableRecord
100
AcDbLayerTableRecord
  2
Mittelpunktmarkierung
 70
     0
 62
     7
  6
CHAIN
370
    25
390
F
  0
LAYER
  5
B1
330
2
100
AcDbSymbolTableRecord
100
AcDbLayerTableRecord
  2
Symbole
 70
     0
 62
     7
  6
Continuous
370
    25
390
F
  0
LAYER
  5
B2
330
2
100
AcDbSymbolTableRecord
100
AcDbLayerTableRecord
  2
Führungslinien
 70
     0
 62
     7
  6
Continuous
370
    25
390
F
  0
LAYER
  5
B3
330
2
100
AcDbSymbolTableRecord
100
AcDbLayerTableRecord
  2
Skizzierlinien
 70
     0
 62
     7
  6
Continuous
370
    25
390
F
  0
LAYER
  5
B4
330
2
100
AcDbSymbolTableRecord
100
AcDbLayerTableRecord
  2
Phantomlinien
 70
     0
 62
     7
  6
DOUBLE_DASH_CHAIN
370
    70
390
F
  0
LAYER
  5
B5
330
2
100
AcDbSymbolTableRecord
100
AcDbLayerTableRecord
  2
Symmetrielinien
 70
     0
 62
     7
  6
LONG_DASH_DOTTED
370
    25
390
F
  0
LAYER
  5
B6
330
2
100
AcDbSymbolTableRecord
100
AcDbLayerTableRecord
  2
Bruchlinien
 70
     0
 62
     7
  6
Continuous
370
    50
390
F
  0
LAYER
  5
B7
330
2
100
AcDbSymbolTableRecord
100
AcDbLayerTableRecord
  2
Stich 1-Linien
 70
     0
 62
     7
  6
DASHED_SPACE
370
    25
390
F
  0
LAYER
  5
B8
330
2
100
AcDbSymbolTableRecord
100
AcDbLayerTableRecord
  2
Stich 2-Linien
 70
     0
 62
     7
  6
DOTTED
370
    25
390
F
  0
LAYER
  5
B9
330
2
100
AcDbSymbolTableRecord
100
AcDbLayerTableRecord
  2
Mittellinie
 70
     0
 62
     7
  6
CHAIN
370
    25
390
F
  0
LAYER
  5
BA
330
2
100
AcDbSymbolTableRecord
100
AcDbLayerTableRecord
  2
Nur Linien skizzieren
 70
     0
 62
     7
  6
Continuous
370
    50
390
F
  0
LAYER
  5
BB
330
2
100
AcDbSymbolTableRecord
100
AcDbLayerTableRecord
  2
Biegungsenden
 70
     0
 62
     7
  6
Continuous
370
    50
390
F
  0
LAYER
  5
BC
330
2
100
AcDbSymbolTableRecord
100
AcDbLayerTableRecord
  2
Konturlinien
 70
     0
 62
     7
  6
LONG_DASH_DOUBLE_DOT
370
    25
390
F
  0
LAYER
  5
BD
330
2
100
AcDbSymbolTableRecord
100
AcDbLayerTableRecord
  2
Linien mit spezieller Bezeichnung
 70
     0
 62
     7
  6
LONG_DASH_DOTTED
370
    50
390
F
  0
LAYER
  5
BE
330
2
100
AcDbSymbolTableRecord
100
AcDbLayerTableRecord
  2
Arbeitspunkt
 70
     0
 62
     7
  6
Continuous
370
    25
390
F
  0
LAYER
  5
BF
330
2
100
AcDbSymbolTableRecord
100
AcDbLayerTableRecord
  2
Arbeitsachse
 70
     0
 62
     7
  6
CHAIN
370
    25
390
F
  0
LAYER
  5
C0
330
2
100
AcDbSymbolTableRecord
100
AcDbLayerTableRecord
  2
Arbeitsebene
 70
     0
 62
     7
  6
DOUBLE_DASH_CHAIN
370
    25
390
F
  0
LAYER
  5
C1
330
2
100
AcDbSymbolTableRecord
100
AcDbLayerTableRecord
  2
Hatch
 70
     0
 62
     7
  6
Continuous
370
    25
390
F
  0
LAYER
  5
C2
330
2
100
AcDbSymbolTableRecord
100
AcDbLayerTableRecord
  2
Text
 70
     0
 62
     7
  6
Continuous
370
    25
390
F
  0
LAYER
  5
2E1
330
2
100
AcDbSymbolTableRecord
100
AcDbLayerTableRecord
  2
AM_BOR
 70
     0
 62
     7
  6
Continuous
370
    50
390
F
  0
LAYER
  5
35E
330
2
100
AcDbSymbolTableRecord
100
AcDbLayerTableRecord
  2
AM_5
 70
     0
 62
     3
  6
Continuous
370
    25
390
F
  0
LAYER
  5
35F
330
2
100
AcDbSymbolTableRecord
100
AcDbLayerTableRecord
  2
AM_4
 70
     0
 62
     3
  6
Continuous
370
    25
390
F
  0
LAYER
  5
360
330
2
100
AcDbSymbolTableRecord
100
AcDbLayerTableRecord
  2
AM_8
 70
     0
 62
     1
  6
Continuous
370
    25
390
F
  0
LAYER
  5
361
330
2
100
AcDbSymbolTableRecord
100
AcDbLayerTableRecord
  2
Logo-AM_3
 70
     0
 62
     6
  6
AM_DIN_F_W050
370
    25
390
F
  0
LAYER
  5
362
330
2
100
AcDbSymbolTableRecord
100
AcDbLayerTableRecord
  2
Logo-AM_4
 70
     0
 62
     3
  6
Continuous
370
    25
390
F
  0
LAYER
  5
363
330
2
100
AcDbSymbolTableRecord
100
AcDbLayerTableRecord
  2
Logo-AM_8
 70
     0
 62
     1
  6
Continuous
370
    25
390
F
  0
LAYER
  5
364
330
2
100
AcDbSymbolTableRecord
100
AcDbLayerTableRecord
  2
AM_0
 70
     0
 62
     7
  6
Continuous
370
    50
390
F
  0
LAYER
  5
62C
330
2
100
AcDbSymbolTableRecord
100
AcDbLayerTableRecord
  2
AM_7
 70
     0
 62
     4
  6
AM_DIN_G_W050
370
    25
390
F
  0
LAYER
  5
65F
330
2
100
AcDbSymbolTableRecord
100
AcDbLayerTableRecord
  2
AM_3
 70
     0
 62
     6
  6
AM_DIN_F_W050
370
    25
390
F
  0
LAYER
  5
7CA
330
2
100
AcDbSymbolTableRecord
100
AcDbLayerTableRecord
  2
AM_6
 70
     0
 62
     2
  6
Continuous
370
    35
390
F
  0
LAYER
  5
7CC
330
2
100
AcDbSymbolTableRecord
100
AcDbLayerTableRecord
  2
SR240-AUSF_L
 70
     0
 62
     7
  6
Continuous
370
    -3
390
F
  0
ENDTAB
  0
TABLE
  2
STYLE
  5
3
330
0
100
AcDbSymbolTable
 70
    91
  0
STYLE
  5
11
330
3
100
AcDbSymbolTableRecord
100
AcDbTextStyleTableRecord
  2
Standard
 70
     0
 40
0.0
 41
1.0
 50
0.0
 71
     0
 42
0.2
  3
isocp___.ttf
  4

1001
ACAD
1000
isocp
1071
      256
  0
STYLE
  5
5E
330
3
100
AcDbSymbolTableRecord
100
AcDbTextStyleTableRecord
  2

 70
     1
 40
0.0
 41
1.0
 50
0.0
 71
     0
 42
0.2
  3
ltypeshp.shx
  4

  0
STYLE
  5
66
330
3
100
AcDbSymbolTableRecord
100
AcDbTextStyleTableRecord
  2
Textstil1
 70
     0
 40
0.0
 41
1.0
 50
0.0
 71
     0
 42
0.2
  3
ARIAL.TTF
  4

1001
ACAD
1000
Arial
1071
      256
  0
STYLE
  5
67
330
3
100
AcDbSymbolTableRecord
100
AcDbTextStyleTableRecord
  2
Textstil2
 70
     0
 40
0.0
 41
1.0
 50
0.0
 71
     0
 42
0.2
  3
Aigdt___.ttf
  4

1001
ACAD
1000
AIGDT
1071
      514
  0
STYLE
  5
68
330
3
100
AcDbSymbolTableRecord
100
AcDbTextStyleTableRecord
  2
Textstil3
 70
     0
 40
0.0
 41
1.0
 50
0.0
 71
     0
 42
0.2
  3
TIMES.TTF
  4

1001
ACAD
1000
Times New Roman
1071
      256
  0
STYLE
  5
69
330
3
100
AcDbSymbolTableRecord
100
AcDbTextStyleTableRecord
  2
Textstil4
 70
     0
 40
0.0
 41
1.0
 50
0.0
 71
     0
 42
0.2
  3
TIMES.TTF
  4

1001
ACAD
1000
Times New Roman
1071
      256
  0
STYLE
  5
6A
330
3
100
AcDbSymbolTableRecord
100
AcDbTextStyleTableRecord
  2
Textstil5
 70
     0
 40
0.0
 41
1.0
 50
0.0
 71
     0
 42
0.2
  3
ARIAL.TTF
  4

1001
ACAD
1000
Arial
1071
      256
  0
STYLE
  5
6B
330
3
100
AcDbSymbolTableRecord
100
AcDbTextStyleTableRecord
  2
Textstil6
 70
     0
 40
0.0
 41
1.0
 50
0.0
 71
     0
 42
0.2
  3
ARIAL.TTF
  4

1001
ACAD
1000
Arial
1071
      256
  0
STYLE
  5
6C
330
3
100
AcDbSymbolTableRecord
100
AcDbTextStyleTableRecord
  2
Textstil7
 70
     0
 40
0.0
 41
1.0
 50
0.0
 71
     0
 42
0.2
  3
ARIAL.TTF
  4

1001
ACAD
1000
Arial
1071
      256
  0
STYLE
  5
6D
330
3
100
AcDbSymbolTableRecord
100
AcDbTextStyleTableRecord
  2
Textstil8
 70
     0
 40
0.0
 41
1.0
 50
0.0
 71
     0
 42
0.2
  3
ARIAL.TTF
  4

1001
ACAD
1000
Arial
1071
      256
  0
STYLE
  5
6E
330
3
100
AcDbSymbolTableRecord
100
AcDbTextStyleTableRecord
  2
Textstil9
 70
     0
 40
0.0
 41
1.0
 50
0.0
 71
     0
 42
0.2
  3
ARIAL.TTF
  4

1001
ACAD
1000
Arial
1071
      256
  0
STYLE
  5
6F
330
3
100
AcDbSymbolTableRecord
100
AcDbTextStyleTableRecord
  2
Textstil10
 70
     0
 40
0.0
 41
1.0
 50
0.0
 71
     0
 42
0.2
  3
ARIAL.TTF
  4

1001
ACAD
1000
Arial
1071
      256
  0
STYLE
  5
70
330
3
100
AcDbSymbolTableRecord
100
AcDbTextStyleTableRecord
  2
Textstil11
 70
     0
 40
0.0
 41
1.0
 50
0.0
 71
     0
 42
0.2
  3
ARIAL.TTF
  4

1001
ACAD
1000
Arial
1071
      256
  0
STYLE
  5
71
330
3
100
AcDbSymbolTableRecord
100
AcDbTextStyleTableRecord
  2
Textstil12
 70
     0
 40
0.0
 41
1.0
 50
0.0
 71
     0
 42
0.2
  3
ARIAL.TTF
  4

1001
ACAD
1000
Arial
1071
      256
  0
STYLE
  5
72
330
3
100
AcDbSymbolTableRecord
100
AcDbTextStyleTableRecord
  2
Textstil13
 70
     0
 40
0.0
 41
1.0
 50
0.0
 71
     0
 42
0.2
  3
Aigdt___.ttf
  4

1001
ACAD
1000
AIGDT
1071
      514
  0
STYLE
  5
73
330
3
100
AcDbSymbolTableRecord
100
AcDbTextStyleTableRecord
  2
Textstil14
 70
     0
 40
0.0
 41
1.0
 50
0.0
 71
     0
 42
0.2
  3
ARIAL.TTF
  4

1001
ACAD
1000
Arial
1071
      256
  0
STYLE
  5
74
330
3
100
AcDbSymbolTableRecord
100
AcDbTextStyleTableRecord
  2
Textstil15
 70
     0
 40
0.0
 41
1.0
 50
0.0
 71
     0
 42
0.2
  3
ARIAL.TTF
  4

1001
ACAD
1000
Arial
1071
      256
  0
STYLE
  5
75
330
3
100
AcDbSymbolTableRecord
100
AcDbTextStyleTableRecord
  2
Textstil16
 70
     0
 40
0.0
 41
1.0
 50
0.0
 71
     0
 42
0.2
  3
ARIAL.TTF
  4

1001
ACAD
1000
Arial
1071
      256
  0
STYLE
  5
76
330
3
100
AcDbSymbolTableRecord
100
AcDbTextStyleTableRecord
  2
Textstil17
 70
     0
 40
0.0
 41
1.0
 50
0.0
 71
     0
 42
0.2
  3
ARIAL.TTF
  4

1001
ACAD
1000
Arial
1071
      256
  0
STYLE
  5
77
330
3
100
AcDbSymbolTableRecord
100
AcDbTextStyleTableRecord
  2
Textstil18
 70
     0
 40
0.0
 41
1.0
 50
0.0
 71
     0
 42
0.2
  3
Aigdt___.ttf
  4

1001
ACAD
1000
AIGDT
1071
      514
  0
STYLE
  5
78
330
3
100
AcDbSymbolTableRecord
100
AcDbTextStyleTableRecord
  2
Textstil19
 70
     0
 40
0.0
 41
1.0
 50
0.0
 71
     0
 42
0.2
  3
ARIAL.TTF
  4

1001
ACAD
1000
Arial
1071
      256
  0
STYLE
  5
79
330
3
100
AcDbSymbolTableRecord
100
AcDbTextStyleTableRecord
  2
Textstil20
 70
     0
 40
0.0
 41
1.0
 50
0.0
 71
     0
 42
0.2
  3
ARIAL.TTF
  4

1001
ACAD
1000
Arial
1071
      256
  0
STYLE
  5
7A
330
3
100
AcDbSymbolTableRecord
100
AcDbTextStyleTableRecord
  2
Textstil21
 70
     0
 40
0.0
 41
1.0
 50
0.0
 71
     0
 42
0.2
  3
Aigdt___.ttf
  4

1001
ACAD
1000
AIGDT
1071
      514
  0
STYLE
  5
7B
330
3
100
AcDbSymbolTableRecord
100
AcDbTextStyleTableRecord
  2
Textstil22
 70
     0
 40
0.0
 41
1.0
 50
0.0
 71
     0
 42
0.2
  3
ARIAL.TTF
  4

1001
ACAD
1000
Arial
1071
      256
  0
STYLE
  5
7C
330
3
100
AcDbSymbolTableRecord
100
AcDbTextStyleTableRecord
  2
Textstil23
 70
     0
 40
0.0
 41
1.0
 50
0.0
 71
     0
 42
0.2
  3
Aigdt___.ttf
  4

1001
ACAD
1000
AIGDT
1071
      514
  0
STYLE
  5
7D
330
3
100
AcDbSymbolTableRecord
100
AcDbTextStyleTableRecord
  2
Textstil24
 70
     0
 40
0.0
 41
1.0
 50
0.0
 71
     0
 42
0.2
  3
ARIAL.TTF
  4

1001
ACAD
1000
Arial
1071
      256
  0
STYLE
  5
7E
330
3
100
AcDbSymbolTableRecord
100
AcDbTextStyleTableRecord
  2
Textstil25
 70
     0
 40
0.0
 41
1.0
 50
0.0
 71
     0
 42
0.2
  3
ARIAL.TTF
  4

1001
ACAD
1000
Arial
1071
      256
  0
STYLE
  5
7F
330
3
100
AcDbSymbolTableRecord
100
AcDbTextStyleTableRecord
  2
Textstil26
 70
     0
 40
0.0
 41
1.0
 50
0.0
 71
     0
 42
0.2
  3
Aigdt___.ttf
  4

1001
ACAD
1000
AIGDT
1071
      514
  0
STYLE
  5
80
330
3
100
AcDbSymbolTableRecord
100
AcDbTextStyleTableRecord
  2
Textstil27
 70
     0
 40
0.0
 41
1.0
 50
0.0
 71
     0
 42
0.2
  3
ARIAL.TTF
  4

1001
ACAD
1000
Arial
1071
      256
  0
STYLE
  5
81
330
3
100
AcDbSymbolTableRecord
100
AcDbTextStyleTableRecord
  2
Textstil28
 70
     0
 40
0.0
 41
1.0
 50
0.0
 71
     0
 42
0.2
  3
Aigdt___.ttf
  4

1001
ACAD
1000
AIGDT
1071
      514
  0
STYLE
  5
82
330
3
100
AcDbSymbolTableRecord
100
AcDbTextStyleTableRecord
  2
Textstil29
 70
     0
 40
0.0
 41
1.0
 50
0.0
 71
     0
 42
0.2
  3
ARIAL.TTF
  4

1001
ACAD
1000
Arial
1071
      256
  0
STYLE
  5
83
330
3
100
AcDbSymbolTableRecord
100
AcDbTextStyleTableRecord
  2
Textstil30
 70
     0
 40
0.0
 41
1.0
 50
0.0
 71
     0
 42
0.2
  3
ARIALI.TTF
  4

1001
ACAD
1000
Arial
1071
 16777472
  0
STYLE
  5
84
330
3
100
AcDbSymbolTableRecord
100
AcDbTextStyleTableRecord
  2
Textstil31
 70
     0
 40
0.0
 41
1.0
 50
0.0
 71
     0
 42
0.2
  3
Aigdt___.ttf
  4

1001
ACAD
1000
AIGDT
1071
      514
  0
STYLE
  5
85
330
3
100
AcDbSymbolTableRecord
100
AcDbTextStyleTableRecord
  2
Textstil32
 70
     0
 40
0.0
 41
1.0
 50
0.0
 71
     0
 42
0.2
  3
ARIALI.TTF
  4

1001
ACAD
1000
Arial
1071
 16777472
  0
STYLE
  5
86
330
3
100
AcDbSymbolTableRecord
100
AcDbTextStyleTableRecord
  2
Textstil33
 70
     0
 40
0.0
 41
1.0
 50
0.0
 71
     0
 42
0.2
  3
ARIAL.TTF
  4

1001
ACAD
1000
Arial
1071
      256
  0
STYLE
  5
87
330
3
100
AcDbSymbolTableRecord
100
AcDbTextStyleTableRecord
  2
Textstil34
 70
     0
 40
0.0
 41
1.0
 50
0.0
 71
     0
 42
0.2
  3
ARIALI.TTF
  4

1001
ACAD
1000
Arial
1071
 16777472
  0
STYLE
  5
88
330
3
100
AcDbSymbolTableRecord
100
AcDbTextStyleTableRecord
  2
Textstil35
 70
     0
 40
0.0
 41
1.0
 50
0.0
 71
     0
 42
0.2
  3
ARIAL.TTF
  4

1001
ACAD
1000
Arial
1071
      256
  0
STYLE
  5
89
330
3
100
AcDbSymbolTableRecord
100
AcDbTextStyleTableRecord
  2
Textstil36
 70
     0
 40
0.0
 41
1.0
 50
0.0
 71
     0
 42
0.2
  3
ARIALI.TTF
  4

1001
ACAD
1000
Arial
1071
 16777472
  0
STYLE
  5
8A
330
3
100
AcDbSymbolTableRecord
100
AcDbTextStyleTableRecord
  2
Textstil37
 70
     0
 40
0.0
 41
1.0
 50
0.0
 71
     0
 42
0.2
  3
isocp___.ttf
  4

1001
ACAD
1000
isocp
1071
      256
  0
STYLE
  5
8B
330
3
100
AcDbSymbolTableRecord
100
AcDbTextStyleTableRecord
  2
Textstil38
 70
     0
 40
0.0
 41
1.0
 50
0.0
 71
     0
 42
0.2
  3
isocp___.ttf
  4

1001
ACAD
1000
isocp
1071
      256
  0
STYLE
  5
8C
330
3
100
AcDbSymbolTableRecord
100
AcDbTextStyleTableRecord
  2
Textstil39
 70
     0
 40
0.0
 41
1.0
 50
0.0
 71
     0
 42
0.2
  3
isocp___.ttf
  4

1001
ACAD
1000
isocp
1071
      256
  0
STYLE
  5
8D
330
3
100
AcDbSymbolTableRecord
100
AcDbTextStyleTableRecord
  2
Textstil40
 70
     0
 40
0.0
 41
1.0
 50
0.0
 71
     0
 42
0.2
  3
isocp___.ttf
  4

1001
ACAD
1000
isocp
1071
      256
  0
STYLE
  5
8E
330
3
100
AcDbSymbolTableRecord
100
AcDbTextStyleTableRecord
  2
Textstil41
 70
     0
 40
0.0
 41
1.0
 50
0.0
 71
     0
 42
0.2
  3
isocp___.ttf
  4

1001
ACAD
1000
isocp
1071
      256
  0
STYLE
  5
8F
330
3
100
AcDbSymbolTableRecord
100
AcDbTextStyleTableRecord
  2
Textstil42
 70
     0
 40
0.0
 41
1.0
 50
0.0
 71
     0
 42
0.2
  3
isocp___.ttf
  4

1001
ACAD
1000
isocp
1071
      256
  0
STYLE
  5
90
330
3
100
AcDbSymbolTableRecord
100
AcDbTextStyleTableRecord
  2
Textstil43
 70
     0
 40
0.0
 41
0.899999976158142
 50
0.0
 71
     0
 42
0.2
  3
ARIAL.TTF
  4

1001
ACAD
1000
Arial
1071
      256
  0
STYLE
  5
91
330
3
100
AcDbSymbolTableRecord
100
AcDbTextStyleTableRecord
  2
Textstil44
 70
     0
 40
0.0
 41
0.899999976158142
 50
0.0
 71
     0
 42
0.2
  3
ARIALI.TTF
  4

1001
ACAD
1000
Arial
1071
 16777472
  0
STYLE
  5
92
330
3
100
AcDbSymbolTableRecord
100
AcDbTextStyleTableRecord
  2
Textstil45
 70
     0
 40
0.0
 41
0.899999976158142
 50
0.0
 71
     0
 42
0.2
  3
ARIAL.TTF
  4

1001
ACAD
1000
Arial
1071
      256
  0
STYLE
  5
93
330
3
100
AcDbSymbolTableRecord
100
AcDbTextStyleTableRecord
  2
Textstil46
 70
     0
 40
0.0
 41
0.899999976158142
 50
0.0
 71
     0
 42
0.2
  3
Aigdt___.ttf
  4

1001
ACAD
1000
AIGDT
1071
      514
  0
STYLE
  5
94
330
3
100
AcDbSymbolTableRecord
100
AcDbTextStyleTableRecord
  2
Textstil47
 70
     0
 40
0.0
 41
1.0
 50
0.0
 71
     0
 42
0.2
  3
ARIALI.TTF
  4

1001
ACAD
1000
Arial
1071
 16777472
  0
STYLE
  5
95
330
3
100
AcDbSymbolTableRecord
100
AcDbTextStyleTableRecord
  2
Textstil48
 70
     0
 40
0.0
 41
0.9799999594688415
 50
0.0
 71
     0
 42
0.2
  3
ARIAL.TTF
  4

1001
ACAD
1000
Arial
1071
      256
  0
STYLE
  5
96
330
3
100
AcDbSymbolTableRecord
100
AcDbTextStyleTableRecord
  2
Textstil49
 70
     0
 40
0.0
 41
0.9799999594688415
 50
0.0
 71
     0
 42
0.2
  3
ARIALI.TTF
  4

1001
ACAD
1000
Arial
1071
 16777472
  0
STYLE
  5
97
330
3
100
AcDbSymbolTableRecord
100
AcDbTextStyleTableRecord
  2
Textstil50
 70
     0
 40
0.0
 41
0.9799999594688415
 50
0.0
 71
     0
 42
0.2
  3
ARIAL.TTF
  4

1001
ACAD
1000
Arial
1071
      256
  0
STYLE
  5
98
330
3
100
AcDbSymbolTableRecord
100
AcDbTextStyleTableRecord
  2
Textstil51
 70
     0
 40
0.0
 41
0.9799999594688415
 50
0.0
 71
     0
 42
0.2
  3
Aigdt___.ttf
  4

1001
ACAD
1000
AIGDT
1071
      514
  0
STYLE
  5
99
330
3
100
AcDbSymbolTableRecord
100
AcDbTextStyleTableRecord
  2
Textstil52
 70
     0
 40
0.0
 41
1.0
 50
0.0
 71
     0
 42
0.2
  3

  4

1001
ACAD
1000
AMGDT
1071
 33554946
  0
STYLE
  5
9A
330
3
100
AcDbSymbolTableRecord
100
AcDbTextStyleTableRecord
  2
Textstil53
 70
     0
 40
0.0
 41
1.0
 50
0.0
 71
     0
 42
0.2
  3
ARIALBD.TTF
  4

1001
ACAD
1000
Arial
1071
 33554688
  0
STYLE
  5
9B
330
3
100
AcDbSymbolTableRecord
100
AcDbTextStyleTableRecord
  2
Textstil54
 70
     0
 40
0.0
 41
1.0
 50
0.0
 71
     0
 42
0.2
  3
FE11003T.TTF
  4

1001
ACAD
1000
FuturaTEE
1071
      256
  0
STYLE
  5
9C
330
3
100
AcDbSymbolTableRecord
100
AcDbTextStyleTableRecord
  2
Textstil55
 70
     0
 40
0.0
 41
1.199999928474426
 50
0.0
 71
     0
 42
0.2
  3
FE11003T.TTF
  4

1001
ACAD
1000
FuturaTEE
1071
      256
  0
STYLE
  5
9D
330
3
100
AcDbSymbolTableRecord
100
AcDbTextStyleTableRecord
  2
Textstil56
 70
     0
 40
0.0
 41
1.199999928474426
 50
0.0
 71
     0
 42
0.2
  3
isocp___.ttf
  4

1001
ACAD
1000
isocp
1071
      256
  0
STYLE
  5
9E
330
3
100
AcDbSymbolTableRecord
100
AcDbTextStyleTableRecord
  2
Textstil57
 70
     0
 40
0.0
 41
1.199999928474426
 50
0.0
 71
     0
 42
0.2
  3
Aigdt___.ttf
  4

1001
ACAD
1000
AIGDT
1071
      514
  0
STYLE
  5
9F
330
3
100
AcDbSymbolTableRecord
100
AcDbTextStyleTableRecord
  2
Textstil58
 70
     0
 40
0.0
 41
0.9499999880790708
 50
0.0
 71
     0
 42
0.2
  3
ARIAL.TTF
  4

1001
ACAD
1000
Arial
1071
      256
  0
STYLE
  5
A0
330
3
100
AcDbSymbolTableRecord
100
AcDbTextStyleTableRecord
  2
Textstil59
 70
     0
 40
0.0
 41
0.9499999880790708
 50
0.0
 71
     0
 42
0.2
  3
ARIALI.TTF
  4

1001
ACAD
1000
Arial
1071
 16777472
  0
STYLE
  5
A1
330
3
100
AcDbSymbolTableRecord
100
AcDbTextStyleTableRecord
  2
Textstil60
 70
     0
 40
0.0
 41
0.9499999880790708
 50
0.0
 71
     0
 42
0.2
  3
ARIAL.TTF
  4

1001
ACAD
1000
Arial
1071
      256
  0
STYLE
  5
A2
330
3
100
AcDbSymbolTableRecord
100
AcDbTextStyleTableRecord
  2
Textstil61
 70
     0
 40
0.0
 41
0.9499999880790708
 50
0.0
 71
     0
 42
0.2
  3
Aigdt___.ttf
  4

1001
ACAD
1000
AIGDT
1071
      514
  0
STYLE
  5
A3
330
3
100
AcDbSymbolTableRecord
100
AcDbTextStyleTableRecord
  2
Textstil62
 70
     0
 40
0.0
 41
1.0
 50
0.0
 71
     0
 42
0.2
  3

  4

1001
ACAD
1000
AIGDT
1071
 33554946
  0
STYLE
  5
A4
330
3
100
AcDbSymbolTableRecord
100
AcDbTextStyleTableRecord
  2
Textstil63
 70
     0
 40
0.0
 41
1.0
 50
0.0
 71
     0
 42
0.2
  3
isocp___.ttf
  4

1001
ACAD
1000
isocp
1071
      256
  0
STYLE
  5
A5
330
3
100
AcDbSymbolTableRecord
100
AcDbTextStyleTableRecord
  2
Textstil64
 70
     0
 40
0.0
 41
1.0
 50
0.0
 71
     0
 42
0.2
  3

  4

1001
ACAD
1000
isocp
1071
 33554688
  0
STYLE
  5
A6
330
3
100
AcDbSymbolTableRecord
100
AcDbTextStyleTableRecord
  2
Textstil65
 70
     0
 40
0.0
 41
1.0
 50
0.0
 71
     0
 42
0.2
  3
isocp___.ttf
  4

1001
ACAD
1000
isocp
1071
      256
  0
STYLE
  5
A7
330
3
100
AcDbSymbolTableRecord
100
AcDbTextStyleTableRecord
  2
Textstil66
 70
     0
 40
0.0
 41
1.0
 50
0.0
 71
     0
 42
0.2
  3
ARIAL.TTF
  4

1001
ACAD
1000
Arial
1071
      256
  0
STYLE
  5
A8
330
3
100
AcDbSymbolTableRecord
100
AcDbTextStyleTableRecord
  2
Textstil67
 70
     0
 40
0.0
 41
1.0
 50
0.0
 71
     0
 42
0.2
  3
ARIAL.TTF
  4

1001
ACAD
1000
Arial
1071
      256
  0
STYLE
  5
A9
330
3
100
AcDbSymbolTableRecord
100
AcDbTextStyleTableRecord
  2
Textstil68
 70
     0
 40
0.0
 41
1.0
 50
0.0
 71
     0
 42
0.2
  3
ARIALBD.TTF
  4

1001
ACAD
1000
Arial
1071
 33554688
  0
STYLE
  5
C3
330
3
100
AcDbSymbolTableRecord
100
AcDbTextStyleTableRecord
  2
Aktuell-DIN
 70
     0
 40
0.0
 41
1.0
 50
0.0
 71
     0
 42
0.2
  3
ARIAL.TTF
  4

1001
ACAD
1000
Arial
1071
      256
  0
STYLE
  5
C4
330
3
100
AcDbSymbolTableRecord
100
AcDbTextStyleTableRecord
  2
STANDARD-DIN
 70
     0
 40
0.0
 41
1.0
 50
0.0
 71
     0
 42
0.2
  3
ARIAL.TTF
  4

1001
ACAD
1000
Arial
1071
      256
  0
STYLE
  5
C5
330
3
100
AcDbSymbolTableRecord
100
AcDbTextStyleTableRecord
  2
STANDARDAM_DIN
 70
     0
 40
0.0
 41
1.0
 50
0.0
 71
     0
 42
0.2
  3
isocp___.ttf
  4

1001
ACAD
1000
isocp
1071
      256
  0
STYLE
  5
C6
330
3
100
AcDbSymbolTableRecord
100
AcDbTextStyleTableRecord
  2
STANDARDAM_DIN$3
 70
     0
 40
0.0
 41
1.0
 50
0.0
 71
     0
 42
0.2
  3
isocp___.ttf
  4

1001
ACAD
1000
isocp
1071
      256
  0
STYLE
  5
C7
330
3
100
AcDbSymbolTableRecord
100
AcDbTextStyleTableRecord
  2
STANDARDAM_DIN$4
 70
     0
 40
0.0
 41
1.0
 50
0.0
 71
     0
 42
0.2
  3
isocp___.ttf
  4

1001
ACAD
1000
isocp
1071
      256
  0
STYLE
  5
C8
330
3
100
AcDbSymbolTableRecord
100
AcDbTextStyleTableRecord
  2
STANDARDAM_DIN$6
 70
     0
 40
0.0
 41
1.0
 50
0.0
 71
     0
 42
0.2
  3
isocp___.ttf
  4

1001
ACAD
1000
isocp
1071
      256
  0
STYLE
  5
C9
330
3
100
AcDbSymbolTableRecord
100
AcDbTextStyleTableRecord
  2
STANDARDAM_DIN$7
 70
     0
 40
0.0
 41
1.0
 50
0.0
 71
     0
 42
0.2
  3
isocp___.ttf
  4

1001
ACAD
1000
isocp
1071
      256
  0
STYLE
  5
CA
330
3
100
AcDbSymbolTableRecord
100
AcDbTextStyleTableRecord
  2
STANDARDAM_DIN$SF
 70
     0
 40
0.0
 41
1.0
 50
0.0
 71
     0
 42
0.2
  3
isocp___.ttf
  4

1001
ACAD
1000
isocp
1071
      256
  0
STYLE
  5
CB
330
3
100
AcDbSymbolTableRecord
100
AcDbTextStyleTableRecord
  2
STANDARDAM_DIN$SH
 70
     0
 40
0.0
 41
1.0
 50
0.0
 71
     0
 42
0.2
  3
isocp___.ttf
  4

1001
ACAD
1000
isocp
1071
      256
  0
STYLE
  5
CC
330
3
100
AcDbSymbolTableRecord
100
AcDbTextStyleTableRecord
  2
STANDARDAM_ISO
 70
     0
 40
0.0
 41
1.0
 50
0.0
 71
     0
 42
0.2
  3
isocp___.ttf
  4

1001
ACAD
1000
isocp
1071
      256
  0
STYLE
  5
CD
330
3
100
AcDbSymbolTableRecord
100
AcDbTextStyleTableRecord
  2
STANDARDAM_ISO$3
 70
     0
 40
0.0
 41
1.0
 50
0.0
 71
     0
 42
0.2
  3
isocp___.ttf
  4

1001
ACAD
1000
isocp
1071
      256
  0
STYLE
  5
CE
330
3
100
AcDbSymbolTableRecord
100
AcDbTextStyleTableRecord
  2
STANDARDAM_ISO$4
 70
     0
 40
0.0
 41
1.0
 50
0.0
 71
     0
 42
0.2
  3
isocp___.ttf
  4

1001
ACAD
1000
isocp
1071
      256
  0
STYLE
  5
CF
330
3
100
AcDbSymbolTableRecord
100
AcDbTextStyleTableRecord
  2
STANDARDAM_ISO$6
 70
     0
 40
0.0
 41
1.0
 50
0.0
 71
     0
 42
0.2
  3
isocp___.ttf
  4

1001
ACAD
1000
isocp
1071
      256
  0
STYLE
  5
D0
330
3
100
AcDbSymbolTableRecord
100
AcDbTextStyleTableRecord
  2
STANDARDAM_ISO$7
 70
     0
 40
0.0
 41
1.0
 50
0.0
 71
     0
 42
0.2
  3
isocp___.ttf
  4

1001
ACAD
1000
isocp
1071
      256
  0
STYLE
  5
D1
330
3
100
AcDbSymbolTableRecord
100
AcDbTextStyleTableRecord
  2
STANDARDAM_ISO$SF
 70
     0
 40
0.0
 41
1.0
 50
0.0
 71
     0
 42
0.2
  3
isocp___.ttf
  4

1001
ACAD
1000
isocp
1071
      256
  0
STYLE
  5
D2
330
3
100
AcDbSymbolTableRecord
100
AcDbTextStyleTableRecord
  2
STANDARDAM_ISO$SH
 70
     0
 40
0.0
 41
1.0
 50
0.0
 71
     0
 42
0.2
  3
isocp___.ttf
  4

1001
ACAD
1000
isocp
1071
      256
  0
STYLE
  5
D3
330
3
100
AcDbSymbolTableRecord
100
AcDbTextStyleTableRecord
  2
STANDARDISO-25
 70
     0
 40
0.0
 41
1.0
 50
0.0
 71
     0
 42
0.2
  3
isocp___.ttf
  4

1001
ACAD
1000
isocp
1071
      256
  0
STYLE
  5
294
330
3
100
AcDbSymbolTableRecord
100
AcDbTextStyleTableRecord
  2
ACDINTS
 70
     0
 40
1.0
 41
1.0
 50
0.0
 71
     0
 42
2.5
  3
isocp.shx
  4

  0
STYLE
  5
298
330
3
100
AcDbSymbolTableRecord
100
AcDbTextStyleTableRecord
  2
ACDINGDT
 70
     0
 40
0.0
 41
1.0
 50
0.0
 71
     0
 42
2.5
  3
amgdt.shx
  4

  0
STYLE
  5
2C2
330
3
100
AcDbSymbolTableRecord
100
AcDbTextStyleTableRecord
  2
ACISOTS
 70
     0
 40
1.0
 41
1.0
 50
0.0
 71
     0
 42
2.5
  3
isocp.shx
  4

  0
STYLE
  5
2C6
330
3
100
AcDbSymbolTableRecord
100
AcDbTextStyleTableRecord
  2
ACISOGDT
 70
     0
 40
0.0
 41
1.0
 50
0.0
 71
     0
 42
2.5
  3
amgdt.shx
  4

  0
ENDTAB
  0
TABLE
  2
VIEW
  5
6
330
0
100
AcDbSymbolTable
 70
     6
  0
VIEW
  5
4D1
330
6
100
AcDbSymbolTableRecord
100
AcDbViewTableRecord
  2
AM_VIEW1
 70
     0
 40
210.0
 10
178.478849319435
 20
306.2147116196296
 41
343.1164901664145
 11
0.0
 21
0.0
 31
1.0
 12
0.0
 22
0.0
 32
0.0
 42
50.0
 43
0.0
 44
0.0
 50
0.0
 71
    16
281
     0
 72
     0
  0
VIEW
  5
4D2
330
6
100
AcDbSymbolTableRecord
100
AcDbViewTableRecord
  2
AM_VIEW2
 70
     0
 40
210.0
 10
429.3623591530206
 20
306.2147116196296
 41
343.1164901664145
 11
0.0
 21
0.0
 31
1.0
 12
0.0
 22
0.0
 32
0.0
 42
50.0
 43
0.0
 44
0.0
 50
0.0
 71
    16
281
     0
 72
     0
  0
VIEW
  5
4D3
330
6
100
AcDbSymbolTableRecord
100
AcDbViewTableRecord
  2
AM_VIEW3
 70
     0
 40
210.0
 10
178.478849319435
 20
96.21471161962972
 41
343.1164901664145
 11
0.0
 21
0.0
 31
1.0
 12
0.0
 22
0.0
 32
0.0
 42
50.0
 43
0.0
 44
0.0
 50
0.0
 71
    16
281
     0
 72
     0
  0
VIEW
  5
4D4
330
6
100
AcDbSymbolTableRecord
100
AcDbViewTableRecord
  2
AM_VIEW4
 70
     0
 40
210.0
 10
429.3623591530206
 20
96.21471161962972
 41
343.1164901664145
 11
0.0
 21
0.0
 31
1.0
 12
0.0
 22
0.0
 32
0.0
 42
50.0
 43
0.0
 44
0.0
 50
0.0
 71
    16
281
     0
 72
     0
  0
VIEW
  5
4D5
330
6
100
AcDbSymbolTableRecord
100
AcDbViewTableRecord
  2
AM_VIEW5
 70
     0
 40
210.0
 10
303.9206042362278
 20
201.2147116196297
 41
343.1164901664146
 11
0.0
 21
0.0
 31
1.0
 12
0.0
 22
0.0
 32
0.0
 42
50.0
 43
0.0
 44
0.0
 50
0.0
 71
    16
281
     0
 72
     0
  0
VIEW
  5
4D6
330
6
100
AcDbSymbolTableRecord
100
AcDbViewTableRecord
  2
AM_VIEW6
 70
     0
 40
419.9957999999998
 10
303.9206042362279
 20
201.2147116196297
 41
686.2261180030257
 11
0.0
 21
0.0
 31
1.0
 12
0.0
 22
0.0
 32
0.0
 42
50.0
 43
0.0
 44
0.0
 50
0.0
 71
    16
281
     0
 72
     0
  0
ENDTAB
  0
TABLE
  2
UCS
  5
7
330
0
100
AcDbSymbolTable
 70
     0
  0
ENDTAB
  0
TABLE
  2
APPID
  5
9
330
0
100
AcDbSymbolTable
 70
    24
  0
APPID
  5
12
330
9
100
AcDbSymbolTableRecord
100
AcDbRegAppTableRecord
  2
ACAD
 70
     0
  0
APPID
  5
21D
330
9
100
AcDbSymbolTableRecord
100
AcDbRegAppTableRecord
  2
MCAD_NO_VIS
 70
     0
  0
APPID
  5
21E
330
9
100
AcDbSymbolTableRecord
100
AcDbRegAppTableRecord
  2
ACAD_TEMP_GRAPHIC
 70
     0
  0
APPID
  5
21F
330
9
100
AcDbSymbolTableRecord
100
AcDbRegAppTableRecord
  2
GENIUS_GENBLLY_14
 70
     0
  0
APPID
  5
220
330
9
100
AcDbSymbolTableRecord
100
AcDbRegAppTableRecord
  2
GENIUS_GENTRA_14
 70
     0
  0
APPID
  5
221
330
9
100
AcDbSymbolTableRecord
100
AcDbRegAppTableRecord
  2
GENIUS_GENODEF_13
 70
     0
  0
APPID
  5
222
330
9
100
AcDbSymbolTableRecord
100
AcDbRegAppTableRecord
  2
GENIUS_GENOBJ-N-TIT_13
 70
     0
  0
APPID
  5
223
330
9
100
AcDbSymbolTableRecord
100
AcDbRegAppTableRecord
  2
GENIUS_GENTITLE_13
 70
     0
  0
APPID
  5
224
330
9
100
AcDbSymbolTableRecord
100
AcDbRegAppTableRecord
  2
GENIUS_GENOENT_13
 70
     0
  0
APPID
  5
225
330
9
100
AcDbSymbolTableRecord
100
AcDbRegAppTableRecord
  2
GENIUS_GENOREF_13
 70
     0
  0
APPID
  5
226
330
9
100
AcDbSymbolTableRecord
100
AcDbRegAppTableRecord
  2
GENIUS_GENOLIS_13
 70
     0
  0
APPID
  5
227
330
9
100
AcDbSymbolTableRecord
100
AcDbRegAppTableRecord
  2
GENIUS_GENZVEED_13
 70
     0
  0
APPID
  5
228
330
9
100
AcDbSymbolTableRecord
100
AcDbRegAppTableRecord
  2
GENIUS_GENSCREG_15
 70
     0
  0
APPID
  5
229
330
9
100
AcDbSymbolTableRecord
100
AcDbRegAppTableRecord
  2
GENIUS_GENOBJ-N-SDF_13
 70
     0
  0
APPID
  5
22A
330
9
100
AcDbSymbolTableRecord
100
AcDbRegAppTableRecord
  2
AD_DRAW
 70
     0
  0
APPID
  5
22B
330
9
100
AcDbSymbolTableRecord
100
AcDbRegAppTableRecord
  2
ACATTRIBSERVICES
 70
     0
  0
APPID
  5
22C
330
9
100
AcDbSymbolTableRecord
100
AcDbRegAppTableRecord
  2
DESIGNERASSEMBLIES
 70
     0
  0
APPID
  5
22D
330
9
100
AcDbSymbolTableRecord
100
AcDbRegAppTableRecord
  2
ACADM_DIM_EDIT
 70
     0
  0
APPID
  5
22E
330
9
100
AcDbSymbolTableRecord
100
AcDbRegAppTableRecord
  2
AMDT_DM_ADJ
 70
     0
  0
APPID
  5
365
330
9
100
AcDbSymbolTableRecord
100
AcDbRegAppTableRecord
  2
GENIUS_GENOBJ-N-HTC_13
 70
     0
  0
APPID
  5
366
330
9
100
AcDbSymbolTableRecord
100
AcDbRegAppTableRecord
  2
GENIUS_GENHATCH_13
 70
     0
  0
APPID
  5
367
330
9
100
AcDbSymbolTableRecord
100
AcDbRegAppTableRecord
  2
GENIUS_GENOBJ-N-FIL_13
 70
     0
  0
APPID
  5
368
330
9
100
AcDbSymbolTableRecord
100
AcDbRegAppTableRecord
  2
GENIUS_GENREC_14
 70
     0
  0
APPID
  5
369
330
9
100
AcDbSymbolTableRecord
100
AcDbRegAppTableRecord
  2
GENIUS_GENOBJ-N-REC_13
 70
     0
  0
ENDTAB
  0
TABLE
  2
DIMSTYLE
  5
A
330
0
100
AcDbSymbolTable
 70
    25
100
AcDbDimStyleTable
 71
     0
  0
DIMSTYLE
105
29
330
A
100
AcDbSymbolTableRecord
100
AcDbDimStyleTableRecord
  2
Standard
 70
     0
340
11
  0
DIMSTYLE
105
D4
330
A
100
AcDbSymbolTableRecord
100
AcDbDimStyleTableRecord
  2
AM_DIN
 70
     0
  4
"
 41
3.5
 42
0.5
 43
10.0
 44
1.0
 47
0.1
 48
0.1
 73
     0
 74
     0
 77
     1
 78
     8
 79
     2
140
3.5
141
0.0
143
0.0393701
146
0.71
147
1.5
172
     1
176
   256
177
   256
178
     2
271
     2
272
     2
283
     0
340
11
371
    -1
372
    -1
  0
DIMSTYLE
105
D5
330
A
100
AcDbSymbolTableRecord
100
AcDbDimStyleTableRecord
  2
AM_DIN$3
 70
     0
  4
"
 41
3.5
 42
0.5
 43
10.0
 44
1.0
 47
0.1
 48
0.1
 73
     0
 77
     1
 78
     8
 79
     2
140
3.5
141
0.0
143
0.0393701
146
0.71
147
1.5
176
   256
177
   256
178
     2
271
     2
272
     2
283
     0
288
     1
289
     0
340
11
371
    -1
372
    -1
  0
DIMSTYLE
105
D6
330
A
100
AcDbSymbolTableRecord
100
AcDbDimStyleTableRecord
  2
AM_DIN$4
 70
     0
  4
"
 41
3.5
 42
0.5
 43
10.0
 44
1.0
 47
0.1
 48
0.1
 73
     0
 77
     1
 78
     8
 79
     2
140
3.5
141
0.0
143
0.0393701
146
0.71
147
1.5
176
   256
177
   256
178
     2
271
     2
272
     2
283
     0
288
     1
289
     0
340
11
371
    -1
372
    -1
  0
DIMSTYLE
105
D7
330
A
100
AcDbSymbolTableRecord
100
AcDbDimStyleTableRecord
  2
AM_DIN$6
 70
     0
  4
"
 41
3.5
 42
0.5
 43
10.0
 44
1.0
 47
0.1
 48
0.1
 73
     0
 74
     0
 78
     8
 79
     2
140
3.5
141
0.0
143
0.0393701
146
0.71
147
1.5
172
     1
176
   256
177
   256
178
     2
271
     2
272
     2
283
     0
340
11
371
    -1
372
    -1
  0
DIMSTYLE
105
D8
330
A
100
AcDbSymbolTableRecord
100
AcDbDimStyleTableRecord
  2
AM_DIN$7
 70
     0
  4
"
 41
3.5
 42
0.5
 43
10.0
 44
1.0
 47
0.1
 48
0.1
 73
     0
 74
     0
 77
     1
 78
     8
 79
     2
140
5.0
141
0.0
143
0.0393701
146
0.71
147
1.5
172
     1
176
   256
177
   256
178
     2
271
     2
272
     2
283
     0
340
11
371
    -1
372
    -1
  0
DIMSTYLE
105
D9
330
A
100
AcDbSymbolTableRecord
100
AcDbDimStyleTableRecord
  2
AM_DIN$SF
 70
     0
  4
"
 41
2.5
 42
1.0
 43
10.0
 44
1.0
 47
0.1
 48
0.1
 73
     0
 74
     0
 75
     1
 76
     1
 77
     1
 78
     8
 79
     2
140
3.5
141
0.0
143
0.0393701
146
0.71
147
1.5
172
     1
176
   256
177
   256
178
     2
271
     2
272
     3
274
     4
283
     0
340
11
371
    -1
372
    -1
  0
DIMSTYLE
105
DA
330
A
100
AcDbSymbolTableRecord
100
AcDbDimStyleTableRecord
  2
AM_DIN$SH
 70
     0
  4
"
 41
2.5
 42
1.0
 43
10.0
 44
1.0
 47
0.1
 48
0.1
 73
     0
 74
     0
 75
     1
 76
     1
 77
     1
 78
     8
 79
     2
140
3.5
141
0.0
143
0.0393701
144
2.0
146
0.71
147
1.5
172
     1
173
     1
176
   256
177
   256
178
     2
271
     2
272
     3
274
     4
283
     0
340
11
343
2BB
371
    -1
372
    -1
  0
DIMSTYLE
105
DB
330
A
100
AcDbSymbolTableRecord
100
AcDbDimStyleTableRecord
  2
AM_ISO
 70
     0
  4
"
 41
2.5
 42
1.0
 43
10.0
 44
1.0
 47
0.1
 48
0.1
 73
     0
 74
     0
 77
     1
 78
     8
 79
     2
140
3.5
141
0.0
143
0.0393701
146
0.71
147
1.5
172
     1
176
   256
177
   256
178
     2
271
     2
272
     3
274
     4
283
     0
284
     8
340
11
371
    -1
372
    -1
  0
DIMSTYLE
105
DC
330
A
100
AcDbSymbolTableRecord
100
AcDbDimStyleTableRecord
  2
AM_ISO$3
 70
     0
  4
"
 41
2.5
 42
1.0
 43
10.0
 44
1.0
 47
0.1
 48
0.1
 73
     0
 77
     1
 78
     8
 79
     2
140
3.5
141
0.0
143
0.0393701
146
0.71
147
1.5
176
   256
177
   256
178
     2
271
     2
272
     3
274
     4
283
     0
284
     8
288
     1
289
     0
340
11
371
    -1
372
    -1
  0
DIMSTYLE
105
DD
330
A
100
AcDbSymbolTableRecord
100
AcDbDimStyleTableRecord
  2
AM_ISO$4
 70
     0
  4
"
 41
2.5
 42
1.0
 43
10.0
 44
1.0
 47
0.1
 48
0.1
 73
     0
 77
     1
 78
     8
 79
     2
140
3.5
141
0.0
143
0.0393701
146
0.71
147
1.5
176
   256
177
   256
178
     2
271
     2
272
     3
274
     4
283
     0
284
     8
288
     1
289
     0
340
11
371
    -1
372
    -1
  0
DIMSTYLE
105
DE
330
A
100
AcDbSymbolTableRecord
100
AcDbDimStyleTableRecord
  2
AM_ISO$6
 70
     0
  4
"
 41
2.5
 42
1.0
 43
10.0
 44
1.0
 47
0.1
 48
0.1
 73
     0
 74
     0
 78
     8
 79
     2
140
3.5
141
0.0
143
0.0393701
146
0.71
147
1.5
172
     1
176
   256
177
   256
178
     2
271
     2
272
     3
274
     4
283
     0
284
     8
340
11
371
    -1
372
    -1
  0
DIMSTYLE
105
DF
330
A
100
AcDbSymbolTableRecord
100
AcDbDimStyleTableRecord
  2
AM_ISO$7
 70
     0
  4
"
 41
2.5
 42
1.0
 43
10.0
 44
1.0
 47
0.1
 48
0.1
 73
     0
 74
     0
 77
     1
 78
     8
 79
     2
140
5.0
141
0.0
143
0.0393701
146
0.71
147
1.5
172
     1
176
   256
177
   256
178
     2
271
     2
272
     3
274
     4
283
     0
284
     8
340
11
371
    -1
372
    -1
  0
DIMSTYLE
105
E0
330
A
100
AcDbSymbolTableRecord
100
AcDbDimStyleTableRecord
  2
AM_ISO$SF
 70
     0
  4
"
 41
2.5
 42
1.0
 43
10.0
 44
1.0
 47
0.1
 48
0.1
 73
     0
 74
     0
 75
     1
 76
     1
 77
     1
 78
     8
 79
     2
140
3.5
141
0.0
143
0.0393701
146
0.71
147
1.5
172
     1
176
   256
177
   256
178
     2
271
     2
272
     3
274
     4
283
     0
284
     8
340
11
371
    -1
372
    -1
  0
DIMSTYLE
105
E1
330
A
100
AcDbSymbolTableRecord
100
AcDbDimStyleTableRecord
  2
AM_ISO$SH
 70
     0
  4
"
 41
2.5
 42
1.0
 43
10.0
 44
1.0
 47
0.1
 48
0.1
 73
     0
 74
     0
 75
     1
 76
     1
 77
     1
 78
     8
 79
     2
140
3.5
141
0.0
143
0.0393701
144
2.0
146
0.71
147
1.5
172
     1
173
     1
176
   256
177
   256
178
     2
271
     2
272
     3
274
     4
283
     0
284
     8
340
11
343
2BB
371
    -1
372
    -1
  0
DIMSTYLE
105
E2
330
A
100
AcDbSymbolTableRecord
100
AcDbDimStyleTableRecord
  2
DIN - Andere
 70
     0
 41
2.5
 42
0.0
 43
5.999999999999999
 44
3.174999999999998
 45
0.00000001
 46
10.0
 78
     8
 79
     2
140
3.5
143
0.03937
147
0.8
171
     3
176
   250
177
   250
178
    18
271
     2
272
     2
278
    44
284
     8
340
11
371
    25
372
    25
  0
DIMSTYLE
105
E3
330
A
100
AcDbSymbolTableRecord
100
AcDbDimStyleTableRecord
  2
DIN - Andere-01
 70
     0
 41
2.5
 42
0.0
 43
5.999999999999999
 44
3.174999999999998
 45
0.00000001
 46
10.0
 78
     8
 79
     2
140
3.5
143
0.03937
147
0.8
171
     3
176
   250
177
   250
178
    18
271
     2
272
     2
278
    44
284
     8
340
11
371
    25
372
    25
  0
DIMSTYLE
105
E4
330
A
100
AcDbSymbolTableRecord
100
AcDbDimStyleTableRecord
  2
DIN - Andere-02
 70
     0
 41
2.5
 42
0.0
 43
5.999999999999999
 44
3.174999999999998
 45
0.00000001
 46
10.0
 78
     8
 79
     2
140
3.5
143
0.03937
147
0.8
171
     3
176
   250
177
   250
178
    18
271
     2
272
     2
278
    44
284
     8
340
11
371
    25
372
    25
  0
DIMSTYLE
105
E5
330
A
100
AcDbSymbolTableRecord
100
AcDbDimStyleTableRecord
  2
DIN - Andere-03
 70
     0
 41
2.5
 42
0.0
 43
5.999999999999999
 44
3.174999999999998
 45
0.00000001
 46
10.0
 78
     8
 79
     2
140
3.5
143
0.03937
147
0.8
171
     3
176
   250
177
   250
178
    18
271
     2
272
     2
278
    44
284
     8
340
11
371
    25
372
    25
  0
DIMSTYLE
105
E6
330
A
100
AcDbSymbolTableRecord
100
AcDbDimStyleTableRecord
  2
DIN - Andere-04
 70
     0
 41
2.5
 42
0.0
 43
5.999999999999999
 44
3.174999999999998
 45
0.00000001
 46
10.0
 78
     8
 79
     2
140
3.5
143
0.03937
147
0.8
171
     3
176
   250
177
   250
178
    18
271
     2
272
     2
278
    44
284
     8
340
11
371
    25
372
    25
  0
DIMSTYLE
105
E7
330
A
100
AcDbSymbolTableRecord
100
AcDbDimStyleTableRecord
  2
ISO-25
 70
     0
 41
2.5
 42
0.625
 43
3.75
 44
1.25
 45
0.00000001
 73
     0
 74
     0
 77
     1
 78
     8
 79
     2
140
2.5
143
0.03937
147
0.625
171
     3
176
   250
177
   250
178
    18
271
     2
272
     2
278
    44
284
     8
340
11
371
     0
372
     0
  0
DIMSTYLE
105
E8
330
A
100
AcDbSymbolTableRecord
100
AcDbDimStyleTableRecord
  2
STANDARD-DIN
 70
     0
 41
2.5
 42
0.0
 43
5.999999999999999
 44
3.174999999999998
 45
0.00000001
 46
10.0
 73
     0
 74
     0
 77
     1
140
3.5
143
0.03937
147
0.8
171
     3
176
   250
177
   250
178
    18
271
     2
272
     2
278
    44
340
11
371
    25
372
    25
  0
DIMSTYLE
105
E9
330
A
100
AcDbSymbolTableRecord
100
AcDbDimStyleTableRecord
  2
STANDARD-DIN-01
 70
     0
 41
2.5
 42
0.0
 43
5.999999999999999
 44
3.174999999999998
 45
0.00000001
 46
10.0
 73
     0
 74
     0
 77
     1
 78
     8
 79
     2
140
3.5
143
0.03937
147
0.8
171
     3
176
   250
177
   250
178
    18
271
     2
272
     2
278
    44
340
11
371
    25
372
    25
  0
DIMSTYLE
105
EA
330
A
100
AcDbSymbolTableRecord
100
AcDbDimStyleTableRecord
  2
STANDARD-DIN-Methode 2a
 70
     0
 41
2.5
 42
0.0
 43
5.999999999999999
 44
3.174999999999998
 45
0.00000001
 46
10.0
 78
     8
 79
     2
140
3.5
143
0.03937
147
0.8
171
     3
176
   250
177
   250
178
    18
271
     2
272
     2
278
    44
284
     8
340
11
371
    25
372
    25
  0
DIMSTYLE
105
EB
330
A
100
AcDbSymbolTableRecord
100
AcDbDimStyleTableRecord
  2
STANDARD-DIN-Methode 2b
 70
     0
 41
2.5
 42
0.0
 43
5.999999999999999
 44
3.174999999999998
 45
0.00000001
 46
10.0
 78
     8
 79
     2
140
3.5
143
0.03937
147
0.8
171
     3
176
   250
177
   250
178
    18
271
     2
272
     2
278
    44
284
     8
340
11
371
    25
372
    25
  0
ENDTAB
  0
TABLE
  2
BLOCK_RECORD
  5
1
330
0
100
AcDbSymbolTable
 70
     8
  0
BLOCK_RECORD
  5
21
102
{ACAD_XDICTIONARY
360
62D
102
}
330
1
100
AcDbSymbolTableRecord
100
AcDbBlockTableRecord
  2
*Model_Space
340
24
  0
BLOCK_RECORD
  5
1D
330
1
100
AcDbSymbolTableRecord
100
AcDbBlockTableRecord
  2
*Paper_Space
340
20
  0
BLOCK_RECORD
  5
25
330
1
100
AcDbSymbolTableRecord
100
AcDbBlockTableRecord
  2
*Paper_Space0
340
28
  0
BLOCK_RECORD
  5
2BB
330
1
100
AcDbSymbolTableRecord
100
AcDbBlockTableRecord
  2
GENAXEH
340
0
  0
BLOCK_RECORD
  5
2E2
330
1
100
AcDbSymbolTableRecord
100
AcDbBlockTableRecord
  2
DIN_A2
340
0
102
{BLKREFS
331
354
102
}
  0
BLOCK_RECORD
  5
356
330
1
100
AcDbSymbolTableRecord
100
AcDbBlockTableRecord
  2
*U3
340
0
  0
BLOCK_RECORD
  5
36A
102
{ACAD_XDICTIONARY
360
4B6
102
}
330
1
100
AcDbSymbolTableRecord
100
AcDbBlockTableRecord
  2
PLANETROLL
340
0
102
{BLKREFS
331
4BC
102
}
  0
BLOCK_RECORD
  5
7DC
330
1
100
AcDbSymbolTableRecord
100
AcDbBlockTableRecord
  2
*S755
340
0
102
{BLKREFS
331
39D
102
}
  0
BLOCK_RECORD
  5
94A
330
1
100
AcDbSymbolTableRecord
100
AcDbBlockTableRecord
  2
*S76
340
0
  0
ENDTAB
  0
ENDSEC
  0
SECTION
  2
BLOCKS
  0
BLOCK
  5
22
330
21
100
AcDbEntity
  8
0
100
AcDbBlockBegin
  2
*Model_Space
 70
     0
 10
0.0
 20
0.0
 30
0.0
  3
*Model_Space
  1

  0
ENDBLK
  5
23
330
21
100
AcDbEntity
  8
0
100
AcDbBlockEnd
  0
BLOCK
  5
1E
330
1D
100
AcDbEntity
 67
     1
  8
0
100
AcDbBlockBegin
  2
*Paper_Space
 70
     0
 10
0.0
 20
0.0
 30
0.0
  3
*Paper_Space
  1

  0
ENDBLK
  5
1F
330
1D
100
AcDbEntity
 67
     1
  8
0
100
AcDbBlockEnd
  0
BLOCK
  5
26
330
25
100
AcDbEntity
  8
0
100
AcDbBlockBegin
  2
*Paper_Space0
 70
     0
 10
0.0
 20
0.0
 30
0.0
  3
*Paper_Space0
  1

  0
ENDBLK
  5
27
330
25
100
AcDbEntity
  8
0
100
AcDbBlockEnd
  0
BLOCK
  5
A12
330
2BB
100
AcDbEntity
  8
0
100
AcDbBlockBegin
  2
GENAXEH
 70
     0
 10
0.0
 20
0.0
 30
0.0
  3
GENAXEH
  1

  0
LINE
  5
A13
330
2BB
100
AcDbEntity
  8
0
100
AcDbLine
 10
-1.0
 20
0.0
 30
0.0
 11
1.0
 21
0.0
 31
0.0
  0
ENDBLK
  5
A14
330
2BB
100
AcDbEntity
  8
0
100
AcDbBlockEnd
  0
BLOCK
  5
345
330
2E2
100
AcDbEntity
  8
0
100
AcDbBlockBegin
  2
DIN_A2
 70
     0
 10
0.0
 20
0.0
 30
0.0
  3
DIN_A2
  1

  0
LINE
  5
2E3
330
2E2
100
AcDbEntity
  8
AM_BOR
 62
     1
370
    25
100
AcDbLine
 10
10.00000000000002
 20
410.0
 30
0.0
 11
584.0
 21
410.0
 31
0.0
  0
LINE
  5
2E4
330
2E2
100
AcDbEntity
  8
0
100
AcDbLine
 10
5.0
 20
5.0
 30
0.0
 11
5.000000000000023
 21
415.0
 31
0.0
  0
TEXT
  5
2E5
330
2E2
100
AcDbEntity
  8
0
 60
     1
100
AcDbText
 10
583.9999999999998
 20
10.0
 30
0.0
 40
3.5
  1
!GENTITLE-INSERT
  7
ACDINTS
100
AcDbText
  0
TEXT
  5
2E6
330
2E2
100
AcDbEntity
  8
0
 60
     1
100
AcDbText
 10
10.0
 20
10.00000000000005
 30
0.0
 40
3.5
  1
!GENTITLE-LL
  7
ACDINTS
100
AcDbText
  0
TEXT
  5
2E7
330
2E2
100
AcDbEntity
  8
0
 60
     1
100
AcDbText
 10
584.0
 20
410.0
 30
0.0
 40
3.5
  1
!GENTITLE-RU
  7
ACDINTS
100
AcDbText
  0
TEXT
  5
2E8
330
2E2
100
AcDbEntity
  8
0
 60
     1
100
AcDbText
 10
594.0
 20
420.0
 30
0.0
 40
3.5
  1
!GENTITLE-MAX
  7
ACDINTS
100
AcDbText
  0
LINE
  5
2E9
330
2E2
100
AcDbEntity
  8
AM_BOR
 62
     1
370
    25
100
AcDbLine
 10
401.9999999999998
 20
0.0
 30
0.0
 11
401.9999999999998
 21
5.000000000000023
 31
0.0
  0
LINE
  5
2EA
330
2E2
100
AcDbEntity
  8
AM_BOR
 62
     1
370
    25
100
AcDbLine
 10
593.9999999999997
 20
0.0
 30
0.0
 11
401.9999999999998
 21
0.0
 31
0.0
  0
LINE
  5
2EB
330
2E2
100
AcDbEntity
  8
AM_BOR
 62
     1
370
    25
100
AcDbLine
 10
583.9999999999998
 20
10.0
 30
0.0
 11
9.999999999999886
 21
10.00000000000007
 31
0.0
  0
LINE
  5
2EC
330
2E2
100
AcDbEntity
  8
AM_BOR
 62
     1
370
    25
100
AcDbLine
 10
53.66666700000002
 20
415.0
 30
0.0
 11
53.66666700000002
 21
410.0
 31
0.0
  0
TEXT
  5
2ED
330
2E2
100
AcDbEntity
  8
AM_BOR
 62
     1
370
    25
100
AcDbText
 10
28.33333350000004
 20
410.5
 30
0.0
 40
4.0
  1
1
  7
ACDINTS
 72
     1
 11
29.33333350000003
 21
412.5
 31
0.0
100
AcDbText
 73
     2
  0
LINE
  5
2EE
330
2E2
100
AcDbEntity
  8
AM_BOR
 62
     1
370
    25
100
AcDbLine
 10
588.9999999999997
 20
56.25
 30
0.0
 11
584.0168861241237
 21
56.25
 31
0.0
  0
TEXT
  5
2EF
330
2E2
100
AcDbEntity
  8
AM_BOR
 62
     1
370
    25
100
AcDbText
 10
584.9084430620617
 20
28.625
 30
0.0
 40
4.0
  1
H
  7
ACDINTS
 72
     1
 11
586.5084430620618
 21
30.625
 31
0.0
100
AcDbText
 73
     2
  0
LINE
  5
2F0
330
2E2
100
AcDbEntity
  8
AM_BOR
 62
     1
370
    25
100
AcDbLine
 10
584.0
 20
410.0
 30
0.0
 11
583.9999999999998
 21
10.0
 31
0.0
  0
LINE
  5
2F1
330
2E2
100
AcDbEntity
  8
AM_BOR
 62
     1
370
    25
100
AcDbLine
 10
10.0
 20
10.0
 30
0.0
 11
10.00000000000002
 21
410.0
 31
0.0
  0
LINE
  5
2F2
330
2E2
100
AcDbEntity
  8
0
100
AcDbLine
 10
588.9999999999997
 20
5.0
 30
0.0
 11
4.999999999999886
 21
5.000000000000071
 31
0.0
  0
LINE
  5
2F3
330
2E2
100
AcDbEntity
  8
0
100
AcDbLine
 10
589.0
 20
415.0
 30
0.0
 11
588.9999999999997
 21
5.0
 31
0.0
  0
LINE
  5
2F4
330
2E2
100
AcDbEntity
  8
0
100
AcDbLine
 10
5.000000000000023
 20
415.0
 30
0.0
 11
589.0
 21
415.0
 31
0.0
  0
LINE
  5
2F5
330
2E2
100
AcDbEntity
  8
AM_BOR
 62
     1
370
    25
100
AcDbLine
 10
593.9999999999997
 20
0.0
 30
0.0
 11
-0.0000000000001137
 21
0.0000000000000727
 31
0.0
  0
LINE
  5
2F6
330
2E2
100
AcDbEntity
  8
AM_BOR
 62
     1
370
    25
100
AcDbLine
 10
0.0000000000000257
 20
420.0
 30
0.0
 11
594.0
 21
420.0
 31
0.0
  0
LINE
  5
2F7
330
2E2
100
AcDbEntity
  8
AM_BOR
 62
     1
370
    25
100
AcDbLine
 10
0.0
 20
0.0
 30
0.0
 11
0.0000000000000257
 21
420.0
 31
0.0
  0
LINE
  5
2F8
330
2E2
100
AcDbEntity
  8
AM_BOR
 62
     1
370
    25
100
AcDbLine
 10
210.0
 20
5.0
 30
0.0
 11
210.0
 21
0.0
 31
0.0
  0
LINE
  5
2F9
330
2E2
100
AcDbEntity
  8
AM_BOR
 62
     1
370
    25
100
AcDbLine
 10
0.0
 20
297.0
 30
0.0
 11
5.0
 21
297.0
 31
0.0
  0
LINE
  5
2FA
330
2E2
100
AcDbEntity
  8
AM_BOR
 62
     1
370
    25
100
AcDbLine
 10
105.0
 20
420.0
 30
0.0
 11
105.0
 21
415.0
 31
0.0
  0
LINE
  5
2FB
330
2E2
100
AcDbEntity
  8
AM_BOR
 62
     1
370
    25
100
AcDbLine
 10
594.0
 20
420.0
 30
0.0
 11
593.9999999999997
 21
0.0
 31
0.0
  0
LINE
  5
2FC
330
2E2
100
AcDbEntity
  8
AM_BOR
 62
     2
370
    35
100
AcDbLine
 10
297.0
 20
415.0
 30
0.0
 11
297.0
 21
400.0
 31
0.0
  0
LINE
  5
2FD
330
2E2
100
AcDbEntity
  8
AM_BOR
 62
     2
370
    35
100
AcDbLine
 10
5.000000000000011
 20
210.0
 30
0.0
 11
20.00000000000001
 21
210.0
 31
0.0
  0
LINE
  5
2FE
330
2E2
100
AcDbEntity
  8
AM_BOR
 62
     2
370
    35
100
AcDbLine
 10
296.9999999999999
 20
5.000000000000035
 30
0.0
 11
296.9999999999999
 21
20.00000000000003
 31
0.0
  0
LINE
  5
2FF
330
2E2
100
AcDbEntity
  8
AM_BOR
 62
     2
370
    35
100
AcDbLine
 10
589.0
 20
210.0
 30
0.0
 11
574.0
 21
210.0
 31
0.0
  0
TEXT
  5
300
330
2E2
100
AcDbEntity
  8
AM_BOR
 62
     1
370
    25
100
AcDbText
 10
76.5306697913386
 20
410.5
 30
0.0
 40
4.0
  1
2
  7
ACDINTS
 72
     1
 11
78.00000050000001
 21
412.5
 31
0.0
100
AcDbText
 73
     2
  0
LINE
  5
301
330
2E2
100
AcDbEntity
  8
AM_BOR
 62
     1
370
    25
100
AcDbLine
 10
102.333334
 20
415.0
 30
0.0
 11
102.333334
 21
410.0
 31
0.0
  0
TEXT
  5
302
330
2E2
100
AcDbEntity
  8
AM_BOR
 62
     1
370
    25
100
AcDbText
 10
125.1838247875254
 20
410.5
 30
0.0
 40
4.0
  1
3
  7
ACDINTS
 72
     1
 11
126.6666675
 21
412.5
 31
0.0
100
AcDbText
 73
     2
  0
LINE
  5
303
330
2E2
100
AcDbEntity
  8
AM_BOR
 62
     1
370
    25
100
AcDbLine
 10
151.000001
 20
415.0
 30
0.0
 11
151.000001
 21
410.0
 31
0.0
  0
TEXT
  5
304
330
2E2
100
AcDbEntity
  8
AM_BOR
 62
     1
370
    25
100
AcDbText
 10
173.7333344999999
 20
410.5
 30
0.0
 40
4.0
  1
4
  7
ACDINTS
 72
     1
 11
175.3333344999999
 21
412.5
 31
0.0
100
AcDbText
 73
     2
  0
LINE
  5
305
330
2E2
100
AcDbEntity
  8
AM_BOR
 62
     1
370
    25
100
AcDbLine
 10
199.666668
 20
415.0
 30
0.0
 11
199.666668
 21
410.0
 31
0.0
  0
TEXT
  5
306
330
2E2
100
AcDbEntity
  8
AM_BOR
 62
     1
370
    25
100
AcDbText
 10
222.5171587875254
 20
410.5
 30
0.0
 40
4.0
  1
5
  7
ACDINTS
 72
     1
 11
224.0000015
 21
412.5
 31
0.0
100
AcDbText
 73
     2
  0
LINE
  5
307
330
2E2
100
AcDbEntity
  8
AM_BOR
 62
     1
370
    25
100
AcDbLine
 10
248.333335
 20
415.0
 30
0.0
 11
248.333335
 21
410.0
 31
0.0
  0
TEXT
  5
308
330
2E2
100
AcDbEntity
  8
AM_BOR
 62
     1
370
    25
100
AcDbText
 10
271.2871409409449
 20
410.5
 30
0.0
 40
4.0
  1
6
  7
ACDINTS
 72
     1
 11
272.6666685
 21
412.5
 31
0.0
100
AcDbText
 73
     2
  0
TEXT
  5
309
330
2E2
100
AcDbEntity
  8
AM_BOR
 62
     1
370
    25
100
AcDbText
 10
319.9333355
 20
410.5
 30
0.0
 40
4.0
  1
7
  7
ACDINTS
 72
     1
 11
321.3333355
 21
412.5
 31
0.0
100
AcDbText
 73
     2
  0
LINE
  5
30A
330
2E2
100
AcDbEntity
  8
AM_BOR
 62
     1
370
    25
100
AcDbLine
 10
345.666669
 20
415.0
 30
0.0
 11
345.666669
 21
410.0
 31
0.0
  0
TEXT
  5
30B
330
2E2
100
AcDbEntity
  8
AM_BOR
 62
     1
370
    25
100
AcDbText
 10
368.6000025
 20
410.5
 30
0.0
 40
4.0
  1
8
  7
ACDINTS
 72
     1
 11
370.0000025
 21
412.5
 31
0.0
100
AcDbText
 73
     2
  0
LINE
  5
30C
330
2E2
100
AcDbEntity
  8
AM_BOR
 62
     1
370
    25
100
AcDbLine
 10
394.333336
 20
415.0
 30
0.0
 11
394.333336
 21
410.0
 31
0.0
  0
TEXT
  5
30D
330
2E2
100
AcDbEntity
  8
AM_BOR
 62
     1
370
    25
100
AcDbText
 10
417.1993365934823
 20
410.5
 30
0.0
 40
4.0
  1
9
  7
ACDINTS
 72
     1
 11
418.6666694999998
 21
412.5
 31
0.0
100
AcDbText
 73
     2
  0
LINE
  5
30E
330
2E2
100
AcDbEntity
  8
AM_BOR
 62
     1
370
    25
100
AcDbLine
 10
443.0000029999998
 20
415.0
 30
0.0
 11
443.0000029999998
 21
410.0
 31
0.0
  0
TEXT
  5
30F
330
2E2
100
AcDbEntity
  8
AM_BOR
 62
     1
370
    25
100
AcDbText
 10
464.9317616968501
 20
410.5
 30
0.0
 40
4.0
  1
10
  7
ACDINTS
 72
     1
 11
467.3333364999998
 21
412.5
 31
0.0
100
AcDbText
 73
     2
  0
LINE
  5
310
330
2E2
100
AcDbEntity
  8
AM_BOR
 62
     1
370
    25
100
AcDbLine
 10
491.6666699999998
 20
415.0
 30
0.0
 11
491.6666699999998
 21
410.0
 31
0.0
  0
TEXT
  5
311
330
2E2
100
AcDbEntity
  8
AM_BOR
 62
     1
370
    25
100
AcDbText
 10
514.0000034999998
 20
410.5
 30
0.0
 40
4.0
  1
11
  7
ACDINTS
 72
     1
 11
516.0000034999998
 21
412.5
 31
0.0
100
AcDbText
 73
     2
  0
LINE
  5
312
330
2E2
100
AcDbEntity
  8
AM_BOR
 62
     1
370
    25
100
AcDbLine
 10
540.3333369999996
 20
415.0
 30
0.0
 11
540.3333369999996
 21
410.0
 31
0.0
  0
TEXT
  5
313
330
2E2
100
AcDbEntity
  8
AM_BOR
 62
     1
370
    25
100
AcDbText
 10
562.1465523897636
 20
410.5
 30
0.0
 40
4.0
  1
12
  7
ACDINTS
 72
     1
 11
564.6666704999999
 21
412.5
 31
0.0
100
AcDbText
 73
     2
  0
LINE
  5
314
330
2E2
100
AcDbEntity
  8
AM_BOR
 62
     1
370
    25
100
AcDbLine
 10
102.3333339999999
 20
10.00000000000005
 30
0.0
 11
102.3333339999999
 21
5.000000000000056
 31
0.0
  0
LINE
  5
315
330
2E2
100
AcDbEntity
  8
AM_BOR
 62
     1
370
    25
100
AcDbLine
 10
53.66666699999996
 20
10.00000000000005
 30
0.0
 11
53.66666699999996
 21
5.000000000000056
 31
0.0
  0
TEXT
  5
316
330
2E2
100
AcDbEntity
  8
AM_BOR
 62
     1
370
    25
100
AcDbText
 10
28.33333349999996
 20
5.500000000000056
 30
0.0
 40
4.0
  1
1
  7
ACDINTS
 72
     1
 11
29.33333349999997
 21
7.500000000000056
 31
0.0
100
AcDbText
 73
     2
  0
TEXT
  5
317
330
2E2
100
AcDbEntity
  8
AM_BOR
 62
     1
370
    25
100
AcDbText
 10
76.53066979133853
 20
5.500000000000056
 30
0.0
 40
4.0
  1
2
  7
ACDINTS
 72
     1
 11
78.00000049999995
 21
7.500000000000056
 31
0.0
100
AcDbText
 73
     2
  0
LINE
  5
318
330
2E2
100
AcDbEntity
  8
AM_BOR
 62
     1
370
    25
100
AcDbLine
 10
199.6666679999999
 20
10.00000000000005
 30
0.0
 11
199.6666679999999
 21
5.000000000000056
 31
0.0
  0
LINE
  5
319
330
2E2
100
AcDbEntity
  8
AM_BOR
 62
     1
370
    25
100
AcDbLine
 10
151.0000009999999
 20
10.00000000000005
 30
0.0
 11
151.0000009999999
 21
5.000000000000056
 31
0.0
  0
TEXT
  5
31A
330
2E2
100
AcDbEntity
  8
AM_BOR
 62
     1
370
    25
100
AcDbText
 10
125.1838247875252
 20
5.500000000000056
 30
0.0
 40
4.0
  1
3
  7
ACDINTS
 72
     1
 11
126.6666674999999
 21
7.500000000000056
 31
0.0
100
AcDbText
 73
     2
  0
TEXT
  5
31B
330
2E2
100
AcDbEntity
  8
AM_BOR
 62
     1
370
    25
100
AcDbText
 10
173.7333344999999
 20
5.500000000000056
 30
0.0
 40
4.0
  1
4
  7
ACDINTS
 72
     1
 11
175.3333344999999
 21
7.500000000000056
 31
0.0
100
AcDbText
 73
     2
  0
LINE
  5
31C
330
2E2
100
AcDbEntity
  8
AM_BOR
 62
     1
370
    25
100
AcDbLine
 10
248.3333349999999
 20
10.00000000000005
 30
0.0
 11
248.3333349999999
 21
5.000000000000056
 31
0.0
  0
TEXT
  5
31D
330
2E2
100
AcDbEntity
  8
AM_BOR
 62
     1
370
    25
100
AcDbText
 10
222.5171587875253
 20
5.500000000000056
 30
0.0
 40
4.0
  1
5
  7
ACDINTS
 72
     1
 11
224.0000014999999
 21
7.500000000000056
 31
0.0
100
AcDbText
 73
     2
  0
TEXT
  5
31E
330
2E2
100
AcDbEntity
  8
AM_BOR
 62
     1
370
    25
100
AcDbText
 10
271.2871409409448
 20
5.500000000000056
 30
0.0
 40
4.0
  1
6
  7
ACDINTS
 72
     1
 11
272.6666684999999
 21
7.500000000000056
 31
0.0
100
AcDbText
 73
     2
  0
LINE
  5
31F
330
2E2
100
AcDbEntity
  8
AM_BOR
 62
     1
370
    25
100
AcDbLine
 10
394.3333359999999
 20
10.00000000000005
 30
0.0
 11
394.3333359999999
 21
5.000000000000056
 31
0.0
  0
LINE
  5
320
330
2E2
100
AcDbEntity
  8
AM_BOR
 62
     1
370
    25
100
AcDbLine
 10
345.6666689999999
 20
10.00000000000005
 30
0.0
 11
345.6666689999999
 21
5.000000000000056
 31
0.0
  0
TEXT
  5
321
330
2E2
100
AcDbEntity
  8
AM_BOR
 62
     1
370
    25
100
AcDbText
 10
368.6000025
 20
5.500000000000056
 30
0.0
 40
4.0
  1
8
  7
ACDINTS
 72
     1
 11
370.0000025
 21
7.500000000000056
 31
0.0
100
AcDbText
 73
     2
  0
TEXT
  5
322
330
2E2
100
AcDbEntity
  8
AM_BOR
 62
     1
370
    25
100
AcDbText
 10
319.9333354999999
 20
5.500000000000056
 30
0.0
 40
4.0
  1
7
  7
ACDINTS
 72
     1
 11
321.3333354999999
 21
7.500000000000056
 31
0.0
100
AcDbText
 73
     2
  0
LINE
  5
323
330
2E2
100
AcDbEntity
  8
AM_BOR
 62
     1
370
    25
100
AcDbLine
 10
588.9999999999997
 20
107.5
 30
0.0
 11
584.0168861241237
 21
107.5
 31
0.0
  0
TEXT
  5
324
330
2E2
100
AcDbEntity
  8
AM_BOR
 62
     1
370
    25
100
AcDbText
 10
585.0119964526551
 20
79.875
 30
0.0
 40
4.0
  1
G
  7
ACDINTS
 72
     1
 11
586.5084430620618
 21
81.875
 31
0.0
100
AcDbText
 73
     2
  0
LINE
  5
325
330
2E2
100
AcDbEntity
  8
AM_BOR
 62
     1
370
    25
100
AcDbLine
 10
588.9999999999997
 20
158.75
 30
0.0
 11
584.0168861241237
 21
158.75
 31
0.0
  0
TEXT
  5
326
330
2E2
100
AcDbEntity
  8
AM_BOR
 62
     1
370
    25
100
AcDbText
 10
585.1084430620618
 20
131.125
 30
0.0
 40
4.0
  1
F
  7
ACDINTS
 72
     1
 11
586.5084430620618
 21
133.125
 31
0.0
100
AcDbText
 73
     2
  0
LINE
  5
327
330
2E2
100
AcDbEntity
  8
AM_BOR
 62
     1
370
    25
100
AcDbLine
 10
588.9999999999997
 20
210.0
 30
0.0
 11
584.0168861241237
 21
210.0
 31
0.0
  0
TEXT
  5
328
330
2E2
100
AcDbEntity
  8
AM_BOR
 62
     1
370
    25
100
AcDbText
 10
585.1084430620618
 20
182.375
 30
0.0
 40
4.0
  1
E
  7
ACDINTS
 72
     1
 11
586.5084430620618
 21
184.375
 31
0.0
100
AcDbText
 73
     2
  0
LINE
  5
329
330
2E2
100
AcDbEntity
  8
AM_BOR
 62
     1
370
    25
100
AcDbLine
 10
588.9999999999997
 20
261.25
 30
0.0
 11
584.0168861241237
 21
261.25
 31
0.0
  0
TEXT
  5
32A
330
2E2
100
AcDbEntity
  8
AM_BOR
 62
     1
370
    25
100
AcDbText
 10
584.7945343324091
 20
233.625
 30
0.0
 40
4.0
  1
D
  7
ACDINTS
 72
     1
 11
586.5084430620618
 21
235.625
 31
0.0
100
AcDbText
 73
     2
  0
LINE
  5
32B
330
2E2
100
AcDbEntity
  8
AM_BOR
 62
     1
370
    25
100
AcDbLine
 10
588.9999999999997
 20
312.5
 30
0.0
 11
584.0168861241237
 21
312.5
 31
0.0
  0
TEXT
  5
32C
330
2E2
100
AcDbEntity
  8
AM_BOR
 62
     1
370
    25
100
AcDbText
 10
585.2016411135958
 20
284.875
 30
0.0
 40
4.0
  1
C
  7
ACDINTS
 72
     1
 11
586.5084430620618
 21
286.875
 31
0.0
100
AcDbText
 73
     2
  0
LINE
  5
32D
330
2E2
100
AcDbEntity
  8
AM_BOR
 62
     1
370
    25
100
AcDbLine
 10
588.9999999999997
 20
363.75
 30
0.0
 11
584.0168861241237
 21
363.75
 31
0.0
  0
TEXT
  5
32E
330
2E2
100
AcDbEntity
  8
AM_BOR
 62
     1
370
    25
100
AcDbText
 10
584.9084430620617
 20
336.125
 30
0.0
 40
4.0
  1
B
  7
ACDINTS
 72
     1
 11
586.5084430620618
 21
338.125
 31
0.0
100
AcDbText
 73
     2
  0
TEXT
  5
32F
330
2E2
100
AcDbEntity
  8
AM_BOR
 62
     1
370
    25
100
AcDbText
 10
584.7084430620618
 20
387.375
 30
0.0
 40
4.0
  1
A
  7
ACDINTS
 72
     1
 11
586.5084430620618
 21
389.375
 31
0.0
100
AcDbText
 73
     2
  0
TEXT
  5
330
330
2E2
100
AcDbEntity
  8
AM_BOR
 62
     1
370
    25
100
AcDbText
 10
5.908443062062042
 20
28.62500000000003
 30
0.0
 40
4.0
  1
H
  7
ACDINTS
 72
     1
 11
7.508443062062043
 21
30.62500000000003
 31
0.0
100
AcDbText
 73
     2
  0
LINE
  5
331
330
2E2
100
AcDbEntity
  8
AM_BOR
 62
     1
370
    25
100
AcDbLine
 10
10.0
 20
56.25000000000003
 30
0.0
 11
5.016886124124082
 21
56.25000000000003
 31
0.0
  0
TEXT
  5
332
330
2E2
100
AcDbEntity
  8
AM_BOR
 62
     1
370
    25
100
AcDbText
 10
6.011996452655317
 20
79.87500000000003
 30
0.0
 40
4.0
  1
G
  7
ACDINTS
 72
     1
 11
7.508443062062043
 21
81.87500000000003
 31
0.0
100
AcDbText
 73
     2
  0
LINE
  5
333
330
2E2
100
AcDbEntity
  8
AM_BOR
 62
     1
370
    25
100
AcDbLine
 10
10.0
 20
107.5
 30
0.0
 11
5.016886124124082
 21
107.5
 31
0.0
  0
TEXT
  5
334
330
2E2
100
AcDbEntity
  8
AM_BOR
 62
     1
370
    25
100
AcDbText
 10
6.108443062062042
 20
131.125
 30
0.0
 40
4.0
  1
F
  7
ACDINTS
 72
     1
 11
7.508443062062043
 21
133.125
 31
0.0
100
AcDbText
 73
     2
  0
LINE
  5
335
330
2E2
100
AcDbEntity
  8
AM_BOR
 62
     1
370
    25
100
AcDbLine
 10
10.0
 20
158.75
 30
0.0
 11
5.016886124124082
 21
158.75
 31
0.0
  0
TEXT
  5
336
330
2E2
100
AcDbEntity
  8
AM_BOR
 62
     1
370
    25
100
AcDbText
 10
6.108443062062042
 20
182.375
 30
0.0
 40
4.0
  1
E
  7
ACDINTS
 72
     1
 11
7.508443062062043
 21
184.375
 31
0.0
100
AcDbText
 73
     2
  0
TEXT
  5
337
330
2E2
100
AcDbEntity
  8
AM_BOR
 62
     1
370
    25
100
AcDbText
 10
5.794534332409441
 20
233.625
 30
0.0
 40
4.0
  1
D
  7
ACDINTS
 72
     1
 11
7.508443062062043
 21
235.625
 31
0.0
100
AcDbText
 73
     2
  0
LINE
  5
338
330
2E2
100
AcDbEntity
  8
AM_BOR
 62
     1
370
    25
100
AcDbLine
 10
10.0
 20
261.2500000000001
 30
0.0
 11
5.016886124124082
 21
261.2500000000001
 31
0.0
  0
TEXT
  5
339
330
2E2
100
AcDbEntity
  8
AM_BOR
 62
     1
370
    25
100
AcDbText
 10
6.201641113595989
 20
284.8750000000001
 30
0.0
 40
4.0
  1
C
  7
ACDINTS
 72
     1
 11
7.508443062062043
 21
286.8750000000001
 31
0.0
100
AcDbText
 73
     2
  0
LINE
  5
33A
330
2E2
100
AcDbEntity
  8
AM_BOR
 62
     1
370
    25
100
AcDbLine
 10
10.0
 20
312.5
 30
0.0
 11
5.016886124124082
 21
312.5
 31
0.0
  0
TEXT
  5
33B
330
2E2
100
AcDbEntity
  8
AM_BOR
 62
     1
370
    25
100
AcDbText
 10
5.90844306206204
 20
336.125
 30
0.0
 40
4.0
  1
B
  7
ACDINTS
 72
     1
 11
7.508443062062043
 21
338.125
 31
0.0
100
AcDbText
 73
     2
  0
LINE
  5
33C
330
2E2
100
AcDbEntity
  8
AM_BOR
 62
     1
370
    25
100
AcDbLine
 10
10.0
 20
363.7500000000002
 30
0.0
 11
5.016886124124082
 21
363.7500000000002
 31
0.0
  0
TEXT
  5
33D
330
2E2
100
AcDbEntity
  8
AM_BOR
 62
     1
370
    25
100
AcDbText
 10
5.708443062062043
 20
387.3750000000002
 30
0.0
 40
4.0
  1
A
  7
ACDINTS
 72
     1
 11
7.508443062062043
 21
389.3750000000002
 31
0.0
100
AcDbText
 73
     2
  0
TEXT
  5
33E
330
2E2
100
AcDbEntity
  8
AM_BOR
 62
     1
370
    25
100
AcDbText
 10
417.1993365934823
 20
5.5
 30
0.0
 40
4.0
  1
9
  7
ACDINTS
 72
     1
 11
418.6666694999998
 21
7.5
 31
0.0
100
AcDbText
 73
     2
  0
LINE
  5
33F
330
2E2
100
AcDbEntity
  8
AM_BOR
 62
     1
370
    25
100
AcDbLine
 10
491.6666699999998
 20
10.0
 30
0.0
 11
491.6666699999998
 21
5.0
 31
0.0
  0
LINE
  5
340
330
2E2
100
AcDbEntity
  8
AM_BOR
 62
     1
370
    25
100
AcDbLine
 10
443.0000029999998
 20
10.0
 30
0.0
 11
443.0000029999998
 21
5.0
 31
0.0
  0
TEXT
  5
341
330
2E2
100
AcDbEntity
  8
AM_BOR
 62
     1
370
    25
100
AcDbText
 10
464.9317616968501
 20
5.5
 30
0.0
 40
4.0
  1
10
  7
ACDINTS
 72
     1
 11
467.3333364999998
 21
7.5
 31
0.0
100
AcDbText
 73
     2
  0
TEXT
  5
342
330
2E2
100
AcDbEntity
  8
AM_BOR
 62
     1
370
    25
100
AcDbText
 10
514.0000034999998
 20
5.5
 30
0.0
 40
4.0
  1
11
  7
ACDINTS
 72
     1
 11
516.0000034999998
 21
7.5
 31
0.0
100
AcDbText
 73
     2
  0
LINE
  5
343
330
2E2
100
AcDbEntity
  8
AM_BOR
 62
     1
370
    25
100
AcDbLine
 10
540.3333369999995
 20
10.0
 30
0.0
 11
540.3333369999995
 21
5.0
 31
0.0
  0
TEXT
  5
344
330
2E2
100
AcDbEntity
  8
AM_BOR
 62
     1
370
    25
100
AcDbText
 10
562.1465523897635
 20
5.5
 30
0.0
 40
4.0
  1
12
  7
ACDINTS
 72
     1
 11
564.6666704999997
 21
7.5
 31
0.0
100
AcDbText
 73
     2
  0
ENDBLK
  5
346
330
2E2
100
AcDbEntity
  8
0
100
AcDbBlockEnd
  0
BLOCK
  5
357
330
356
100
AcDbEntity
  8
0
100
AcDbBlockBegin
  2
*U3
 70
     1
 10
0.0
 20
0.0
 30
0.0
  3
*U3
  1

  0
ENDBLK
  5
358
330
356
100
AcDbEntity
  8
0
100
AcDbBlockEnd
  0
BLOCK
  5
4B7
330
36A
100
AcDbEntity
  8
0
100
AcDbBlockBegin
  2
PLANETROLL
 70
     2
 10
0.0
 20
0.0
 30
0.0
  3
PLANETROLL
  1

  0
ATTDEF
  5
36B
330
36A
100
AcDbEntity
  8
AM_BOR
100
AcDbText
 10
-81.2071643690715
 20
29.17459677419356
 30
0.0
 40
5.00000000000049
  1

 41
0.8
100
AcDbAttributeDefinition
  3
Zeichnungsname (mx. 20 Z.)
  2
GEN-TITLE-DES1{15.54}
 70
     0
1001
GENIUS_GENTRA_14
1002
{
1070
     3
1000
GENTRAPR,%s,(GENMSG gendwg 87)
1000
Zeichnungsname (mx. 20 Z.)
1000
DEU
1070
     0
1070
     0
1002
}
  0
ATTDEF
  5
36C
330
36A
100
AcDbEntity
  8
AM_BOR
 62
     2
370
    35
100
AcDbText
 10
-80.70716436907151
 20
21.17459677419356
 30
0.0
 40
3.500000000000171
  1

 41
0.8
100
AcDbAttributeDefinition
  3
Beschreibung 2
  2
GEN-TITLE-DES2{21.21}
 70
     0
1001
GENIUS_GENTRA_14
1002
{
1070
     3
1000
GENTRAPR,%s,(GENMSG gendwg 88)
1000
Beschreibung 2
1000
DEU
1070
     0
1070
     0
1002
}
  0
ATTDEF
  5
36D
330
36A
100
AcDbEntity
  8
AM_BOR
100
AcDbText
 10
-81.6060020983652
 20
7.874999999999985
 30
0.0
 40
5.000000000000735
  1
-
 41
0.8
100
AcDbAttributeDefinition
  3
Zeichnungsnummer
  2
GEN-TITLE-NR{13.37}
 70
     0
1001
GENIUS_GENTRA_14
1002
{
1070
     3
1000
GENTRAPR,%s,(GENMSG gendwg 84)
1000
Zeichnungsnummer
1000
DEU
1070
     0
1070
     0
1002
}
  0
ATTDEF
  5
36E
330
36A
100
AcDbEntity
  8
AM_BOR
 62
     1
370
    25
100
AcDbText
 10
-174.9039488085236
 20
43.30487289897945
 30
0.0
 40
2.5
  1
0.2x45°
100
AcDbAttributeDefinition
  3
unbemaßte Kanten
  2
FASE
 70
     0
  0
ATTDEF
  5
36F
330
36A
100
AcDbEntity
  8
AM_BOR
 62
     2
370
    35
100
AcDbText
 10
-84.36539780072981
 20
39.78860215053771
 30
0.0
 40
3.0
  1
-
 41
0.8
100
AcDbAttributeDefinition
  3
Halbzeug (2.Zeile)
  2
GEN-TITLE-NORM2{14.89}
 70
     0
1001
GENIUS_GENTRA_14
1002
{
1070
     3
1000
GENTRAPR,%s,(GENMSG gendwg 86)
1000
Halbzeug (2.Zeile)
1000
DEU
1070
     0
1070
     0
1002
}
  0
ATTDEF
  5
370
330
36A
100
AcDbEntity
  8
AM_BOR
 62
     2
370
    35
100
AcDbText
 10
-84.36539780072981
 20
44.06703812316723
 30
0.0
 40
3.0
  1
-
 41
0.8
100
AcDbAttributeDefinition
  3
Halbzeug (1.Zeile) 
  2
GEN-TITLE-NORM1{14.84}
 70
     0
1001
GENIUS_GENTRA_14
1002
{
1070
     3
1000
GENTRAPR,%s,(GENMSG gendwg 85)
1000
Halbzeug (1.Zeile) 
1000
DEU
1070
     0
1070
     0
1002
}
  0
ATTDEF
  5
371
330
36A
100
AcDbEntity
  8
AM_BOR
 62
     2
370
    35
100
AcDbText
 10
-34.75758354044657
 20
44.06703812316723
 30
0.0
 40
3.0
  1
-
 41
0.8
100
AcDbAttributeDefinition
  3
Material
  2
GEN-TITLE-MAT1{11.15}
 70
     0
1001
GENIUS_GENTRA_14
1002
{
1070
     3
1000
GENTRAPR,%s,(GENMSG gendwg 89)
1000
Material
1000
DEU
1070
     0
1070
     0
1002
}
  0
ATTDEF
  5
372
330
36A
100
AcDbEntity
  8
AM_BOR
 62
     2
370
    35
100
AcDbText
 10
-34.75758354044661
 20
39.78860215053771
 30
0.0
 40
3.0
  1
-
 41
0.8
100
AcDbAttributeDefinition
  3
Material (2.Zeile)
  2
GEN-TITLE-MAT2{11.09}
 70
     0
1001
GENIUS_GENTRA_14
1002
{
1070
     3
1000
GENTRAPR,%s,(GENMSG gendwg 90)
1000
Material (2.Zeile)
1000
DEU
1070
     0
1070
     0
1002
}
  0
ATTDEF
  5
373
330
36A
100
AcDbEntity
  8
AM_BOR
 62
     1
370
    25
100
AcDbText
 10
-102.5325281430328
 20
30.41000000000003
 30
0.0
 40
2.500000000000365
  1

100
AcDbAttributeDefinition
  3
Name des Bearbeiters
  2
GEN-TITLE-NAME{5}
 70
     0
1001
GENIUS_GENTRA_14
1002
{
1070
     3
1000
GENTRAPR,%s,(GENMSG gendwg 81)
1000
Name des Bearbeiters
1000
DEU
1070
     0
1070
     0
1002
}
  0
ATTDEF
  5
374
330
36A
100
AcDbEntity
  8
AM_BOR
 62
     1
370
    25
100
AcDbText
 10
-102.0619852594997
 20
26.4915214039151
 30
0.0
 40
2.500000000000365
  1

100
AcDbAttributeDefinition
  3
Geprüft von
  2
GEN-TITLE-CHKM{5}
 70
     0
1001
GENIUS_GENTRA_14
1002
{
1070
     3
1000
GENTRAPR,%s,(GENMSG gendwg 72)
1000
Geprüft von
1000
DEU
1070
     0
1070
     0
1002
}
  0
ATTDEF
  5
375
330
36A
100
AcDbEntity
  8
AM_BOR
 62
     2
370
    35
100
AcDbText
 10
-6.033639969912446
 20
9.420007355724408
 30
0.0
 40
3.0
  1
-
 41
0.8
 72
     1
 11
-5.100407113846131
 21
9.420007355724408
 31
0.0
100
AcDbAttributeDefinition
  3
Blatt
  2
GEN-TITLE-SHEET{2.62}
 70
     0
1001
GENIUS_GENTRA_14
1002
{
1070
     3
1000
GENTRAPR,%s,(GENMSG gendwg 76)
1000
Blatt
1000
DEU
1070
     0
1070
     0
1002
}
  0
ATTDEF
  5
376
330
36A
100
AcDbEntity
  8
AM_BOR
 62
     2
370
    35
100
AcDbText
 10
-16.73297243245099
 20
50.01451612903075
 30
0.0
 40
3.500000000000343
  1
-
 41
0.8
100
AcDbAttributeDefinition
  3
Menge
  2
GEN-TITLE-QTY{4.38}
 70
     0
1001
GENIUS_GENTRA_14
1002
{
1070
     3
1000
GENTRAPR,%s,(GENMSG gendwg 32)
1000
Menge
1000
DEU
1070
     0
1070
     0
1002
}
  0
LINE
  5
377
330
36A
100
AcDbEntity
  8
AM_BOR
 62
     2
370
    35
100
AcDbLine
 10
-182.88
 20
38.07000000000002
 30
0.0
 11
0.0
 21
38.07000000000002
 31
0.0
  0
ATTDEF
  5
378
330
36A
100
AcDbEntity
  8
AM_BOR
 62
     2
370
    35
100
AcDbText
 10
-70.95960978726719
 20
50.01451612903077
 30
0.0
 40
3.5
  1
-
 41
0.8
100
AcDbAttributeDefinition
  3
Maßstab
  2
GEN-TITLE-SCA{5.42}
 70
     0
1001
GENIUS_GENTRA_14
1002
{
1070
     3
1000
GENTRAPR,%s,(GENMSG gendwg 83)
1000
Maßstab
1000
DEU
1070
     0
1070
     0
1002
}
  0
LINE
  5
379
330
36A
100
AcDbEntity
  8
AM_BOR
 62
     1
370
    25
100
AcDbLine
 10
-182.88
 20
4.230000000000018
 30
0.0
 11
0.0
 21
4.230000000000018
 31
0.0
  0
LWPOLYLINE
  5
37A
330
36A
100
AcDbEntity
  8
AM_0
100
AcDbPolyline
 90
        4
 70
     1
 43
0.0
 10
-182.88
 20
0.0
 10
0.0
 20
0.0
 10
0.0
 20
54.99000000000001
 10
-182.88
 20
54.99000000000004
  0
LINE
  5
37B
330
36A
100
AcDbEntity
  8
AM_BOR
 62
     2
370
    35
100
AcDbLine
 10
-129.54
 20
16.92000000000003
 30
0.0
 11
0.0
 21
16.92000000000003
 31
0.0
  0
LINE
  5
37C
330
36A
100
AcDbEntity
  8
AM_BOR
 62
     1
370
    25
100
AcDbLine
 10
-86.35999999999999
 20
48.66000000000006
 30
0.0
 11
0.0
 21
48.66000000000004
 31
0.0
  0
TEXT
  5
37D
330
36A
100
AcDbEntity
  8
AM_BOR
 62
     1
370
    25
100
AcDbText
 10
-182.3329125604324
 20
1.200000000000001
 30
0.0
 40
2.000000000000293
  1
Zust.
 72
     1
 11
-178.8883006538758
 21
1.200000000000001
 31
0.0
100
AcDbText
1001
GENIUS_GENTRA_14
1002
{
1070
     1
1000
GENTRATX,%s,(GENMSG gendwg 60)
1000
Zust.
1000
DEU
1070
     0
1040
1.0
1070
     0
1002
}
  0
TEXT
  5
37E
330
36A
100
AcDbEntity
  8
AM_BOR
 62
     1
370
    25
100
AcDbText
 10
-102.007191537849
 20
35.04000000000002
 30
0.0
 40
2.000000000000293
  1
Name
 72
     2
 11
-95.11796772473578
 21
35.04000000000002
 31
0.0
100
AcDbText
1001
GENIUS_GENTRA_14
1002
{
1070
     1
1000
GENTRATX,%s,(GENMSG gendwg 63)
1000
Name
1000
DEU
1070
     0
1040
1.0
1070
     0
1002
}
  0
ATTDEF
  5
37F
330
36A
100
AcDbEntity
  8
AM_BOR
 62
     1
370
    25
100
AcDbText
 10
-118.5451003624019
 20
26.17804422461479
 30
0.0
 40
2.500000000000365
  1

100
AcDbAttributeDefinition
  3
Prüfdatum
  2
GEN-TITLE-CHKD{5.41}
 70
     0
1001
GENIUS_GENTRA_14
1002
{
1070
     3
1000
GENTRAPR,%s,(GENMSG gendwg 78)
1000
Prüfdatum
1000
DEU
1070
     0
1070
     0
1002
}
  0
ATTDEF
  5
380
330
36A
100
AcDbEntity
  8
AM_BOR
 62
     1
370
    25
100
AcDbText
 10
-118.7019468872817
 20
30.41000000000003
 30
0.0
 40
2.500000000000365
  1

100
AcDbAttributeDefinition
  3
Bearbeitungsdatum
  2
GEN-TITLE-DAT{5.44}
 70
     0
1001
GENIUS_GENTRA_14
1002
{
1070
     3
1000
GENTRAPR,%s,(GENMSG gendwg 80)
1000
Bearbeitungsdatum
1000
DEU
1070
     0
1070
     0
1002
}
  0
TEXT
  5
381
330
36A
100
AcDbEntity
  8
AM_BOR
 62
     1
370
    25
100
AcDbText
 10
-117.0510162116813
 20
35.04000000000002
 30
0.0
 40
2.000000000000293
  1
Datum
 41
0.8894031330557206
 72
     1
 11
-113.3942087558013
 21
35.04000000000002
 31
0.0
100
AcDbText
1001
GENIUS_GENTRA_14
1002
{
1070
     1
1000
GENTRATX{3.38},%s,(GENMSG gendwg 62)
1000
Datum
1000
DEU
1070
     0
1040
1.0
1070
     0
1002
}
  0
TEXT
  5
382
330
36A
100
AcDbEntity
  8
AM_BOR
 62
     1
370
    25
100
AcDbText
 10
-128.34
 20
30.71000000000001
 30
0.0
 40
2.000000000000293
  1
Bearb.
100
AcDbText
1001
GENIUS_GENTRA_14
1002
{
1070
     1
1000
GENTRATX{4.13},%s,(GENMSG gendwg 67)
1000
Bearb.
1000
DEU
1070
     0
1040
1.0
1070
     0
1002
}
  0
LINE
  5
383
330
36A
100
AcDbEntity
  8
AM_BOR
 62
     1
370
    25
100
AcDbLine
 10
-129.54
 20
21.15000000000003
 30
0.0
 11
-86.35999999999999
 21
21.15000000000003
 31
0.0
  0
TEXT
  5
384
330
36A
100
AcDbEntity
  8
AM_BOR
 62
     1
370
    25
100
AcDbText
 10
-128.34
 20
22.25000000000003
 30
0.0
 40
2.000000000000293
  1
Norm
100
AcDbText
1001
GENIUS_GENTRA_14
1002
{
1070
     1
1000
GENTRATX{4.13},%s,(GENMSG gendwg 69)
1000
Norm
1000
DEU
1070
     0
1040
1.0
1070
     0
1002
}
  0
TEXT
  5
385
330
36A
100
AcDbEntity
  8
AM_BOR
 62
     1
370
    25
100
AcDbText
 10
-128.34
 20
26.48000000000002
 30
0.0
 40
2.000000000000293
  1
Gepr.
100
AcDbText
1001
GENIUS_GENTRA_14
1002
{
1070
     1
1000
GENTRATX{4.19},%s,(GENMSG gendwg 68)
1000
Gepr.
1000
DEU
1070
     0
1040
1.0
1070
     0
1002
}
  0
TEXT
  5
386
330
36A
100
AcDbEntity
  8
AM_BOR
 62
     1
370
    25
100
AcDbText
 10
-126.1457648831951
 20
46.59691797824621
 30
0.0
 40
2.5
  1
ISO 2768-m
 72
     1
 11
-116.84
 21
46.59691797824621
 31
0.0
100
AcDbText
  0
TEXT
  5
387
330
36A
100
AcDbEntity
  8
AM_BOR
 62
     1
370
    25
100
AcDbText
 10
-136.5823351702584
 20
1.199999999998504
 30
0.0
 40
2.000000000000293
  1
Name
100
AcDbText
1001
GENIUS_GENTRA_14
1002
{
1070
     1
1000
GENTRATX{3.31},%s,(GENMSG gendwg 63)
1000
Name
1000
DEU
1070
     0
1040
1.0
1070
     0
1002
}
  0
TEXT
  5
388
330
36A
100
AcDbEntity
  8
AM_BOR
 62
     1
370
    25
100
AcDbText
 10
-125.9373535229315
 20
1.220747800586508
 30
0.0
 40
2.000000000000196
  1
Dateiname
 41
0.7653985085061758
100
AcDbText
1001
GENIUS_GENTRA_14
1002
{
1070
     1
1000
GENTRATX{4.95},%s,(GENMSG gendwg 70)
1000
Dateiname
1000
DEU
1070
     0
1040
0.8
1070
     0
1002
}
  0
LINE
  5
389
330
36A
100
AcDbEntity
  8
AM_BOR
 62
     1
370
    25
100
AcDbLine
 10
-182.88
 20
33.84000000000003
 30
0.0
 11
-86.35999999999999
 21
33.84000000000003
 31
0.0
  0
LINE
  5
38A
330
36A
100
AcDbEntity
  8
AM_BOR
 62
     1
370
    25
100
AcDbLine
 10
-182.88
 20
29.61000000000002
 30
0.0
 11
-86.35999999999999
 21
29.61000000000002
 31
0.0
  0
LINE
  5
38B
330
36A
100
AcDbEntity
  8
AM_BOR
 62
     1
370
    25
100
AcDbLine
 10
-182.88
 20
25.38000000000002
 30
0.0
 11
-86.35999999999999
 21
25.38000000000002
 31
0.0
  0
LINE
  5
38C
330
36A
100
AcDbEntity
  8
AM_BOR
 62
     2
370
    35
100
AcDbLine
 10
-129.54
 20
21.15000000000003
 30
0.0
 11
-129.54
 21
0.0
 31
0.0
  0
LINE
  5
38D
330
36A
100
AcDbEntity
  8
AM_BOR
 62
     1
370
    25
100
AcDbLine
 10
-137.16
 20
38.07000000000002
 30
0.0
 11
-137.16
 21
0.0
 31
0.0
  0
LINE
  5
38E
330
36A
100
AcDbEntity
  8
AM_BOR
 62
     1
370
    25
100
AcDbLine
 10
-149.86
 20
38.07000000000002
 30
0.0
 11
-149.86
 21
0.0
 31
0.0
  0
LINE
  5
38F
330
36A
100
AcDbEntity
  8
AM_BOR
 62
     1
370
    25
100
AcDbLine
 10
-175.26
 20
38.07000000000002
 30
0.0
 11
-175.26
 21
0.0
 31
0.0
  0
TEXT
  5
390
330
36A
100
AcDbEntity
  8
AM_BOR
 62
     1
370
    25
100
AcDbText
 10
-147.9857385221922
 20
1.199999999999988
 30
0.0
 40
2.000000000000293
  1
Datum
 72
     1
 11
-143.8742087558013
 21
1.199999999999988
 31
0.0
100
AcDbText
1001
GENIUS_GENTRA_14
1002
{
1070
     1
1000
GENTRATX,%s,(GENMSG gendwg 62)
1000
Datum
1000
DEU
1070
     0
1040
1.0
1070
     0
1002
}
  0
LINE
  5
391
330
36A
100
AcDbEntity
  8
AM_BOR
 62
     1
370
    25
100
AcDbLine
 10
-182.88
 20
8.460000000000022
 30
0.0
 11
-129.54
 21
8.460000000000036
 31
0.0
  0
TEXT
  5
392
330
36A
100
AcDbEntity
  8
AM_BOR
 62
     1
370
    25
100
AcDbText
 10
-175.1685870913376
 20
1.199999999999988
 30
0.0
 40
2.000000000000293
  1
Änderungen
 72
     1
 11
-167.2801168577268
 21
1.199999999999988
 31
0.0
100
AcDbText
1001
GENIUS_GENTRA_14
1002
{
1070
     1
1000
GENTRATX,%s,(GENMSG gendwg 61)
1000
Änderungen
1000
DEU
1070
     0
1040
1.0
1070
     0
1002
}
  0
TEXT
  5
393
330
36A
100
AcDbEntity
  8
AM_BOR
 62
     1
370
    25
100
AcDbText
 10
-174.8612548811197
 20
43.28022354850008
 30
0.0
 40
2.5
  1
              gebrochen
100
AcDbText
  0
LINE
  5
394
330
36A
100
AcDbEntity
  8
AM_BOR
 62
     1
370
    25
100
AcDbLine
 10
-182.88
 20
21.15000000000003
 30
0.0
 11
-129.54
 21
21.15000000000003
 31
0.0
  0
LINE
  5
395
330
36A
100
AcDbEntity
  8
AM_BOR
 62
     1
370
    25
100
AcDbLine
 10
-182.88
 20
16.92000000000001
 30
0.0
 11
-129.54
 21
16.92000000000003
 31
0.0
  0
LINE
  5
396
330
36A
100
AcDbEntity
  8
AM_BOR
 62
     1
370
    25
100
AcDbLine
 10
-182.88
 20
12.69000000000003
 30
0.0
 11
-129.54
 21
12.69000000000004
 31
0.0
  0
TEXT
  5
397
330
36A
100
AcDbEntity
  8
AM_BOR
 62
     1
370
    25
100
AcDbText
 10
-174.8612548811197
 20
48.03022354850009
 30
0.0
 40
2.5
  1
Alle unbemaßten Kanten
100
AcDbText
  0
LINE
  5
398
330
36A
100
AcDbEntity
  8
AM_BOR
 62
     1
370
    25
100
AcDbLine
 10
-119.38
 20
38.07000000000002
 30
0.0
 11
-119.3799999999999
 21
21.15000000000003
 31
0.0
  0
LINE
  5
399
330
36A
100
AcDbEntity
  8
AM_BOR
 62
     2
370
    35
100
AcDbLine
 10
-129.54
 20
54.99000000000006
 30
0.0
 11
-129.54
 21
21.15000000000003
 31
0.0
  0
LINE
  5
39A
330
36A
100
AcDbEntity
  8
AM_BOR
 62
     2
370
    35
100
AcDbLine
 10
-86.35999999999999
 20
54.99000000000006
 30
0.0
 11
-86.35999999999999
 21
0.0
 31
0.0
  0
ATTDEF
  5
39B
330
36A
100
AcDbEntity
  8
AM_BOR
 62
     1
370
    25
100
AcDbText
 10
-114.3720283023119
 20
0.9492237802654555
 30
0.0
 40
2.5
  1

 41
0.8
100
AcDbAttributeDefinition
  3
Dateiname
  2
GEN-TITLE-DWG{10.8}
 70
     0
1001
GENIUS_GENTRA_14
1002
{
1070
     3
1000
GENTRAPR,%s,(GENMSG gendwg 82)
1000
Dateiname
1000
DEU
1070
     0
1070
     0
1002
}
  0
LINE
  5
39C
330
36A
100
AcDbEntity
  8
AM_BOR
 62
     1
370
    25
100
AcDbLine
 10
-104.14
 20
54.99000000000006
 30
0.0
 11
-104.14
 21
16.92000000000003
 31
0.0
  0
INSERT
  5
39D
330
36A
100
AcDbEntity
  8
AM_5
100
AcDbBlockReference
  2
*S755
 10
0.0
 20
0.0
 30
0.0
  0
TEXT
  5
39E
330
36A
100
AcDbEntity
  8
AM_BOR
 62
     1
370
    25
100
AcDbText
 10
-103.2507535795026
 20
50.65994871394514
 30
0.0
 40
2.0
  1
DIN ISO 1302
 72
     1
 11
-95.24999999999998
 21
50.65994871394514
 31
0.0
100
AcDbText
  0
TEXT
  5
39F
330
36A
100
AcDbEntity
  8
AM_BOR
 62
     1
370
    25
100
AcDbText
 10
-85.14043807672797
 20
50.60161290322582
 30
0.0
 40
2.000000000000293
  1
Maßstab
100
AcDbText
1001
GENIUS_GENTRA_14
1002
{
1070
     1
1000
GENTRATX{6.37},%s,(GENMSG gendwg 73)
1000
Maßstab
1000
DEU
1070
     0
1040
1.0
1070
     0
1002
}
  0
ATTDEF
  5
3A0
330
36A
100
AcDbEntity
  8
AM_BOR
 62
     1
370
    25
100
AcDbText
 10
-5.369955967542636
 20
0.4161834165005305
 30
0.0
 40
3.000000000000293
  1

 72
     1
 11
-5.369955967542636
 21
0.4161834165005305
 31
0.0
100
AcDbAttributeDefinition
  3
Plot-Datum
  2
GEN-TITLE-PLOT{2.94}
 70
     0
1001
GENIUS_GENTRA_14
1002
{
1070
     3
1000
GENTRAPR,%s,(GENMSG gendwg 91)
1000
Plot-Datum
1000
DEU
1070
     0
1070
     0
1002
}
  0
LINE
  5
3A1
330
36A
100
AcDbEntity
  8
AM_BOR
 62
     1
370
    25
100
AcDbLine
 10
-10.16
 20
16.92000000000003
 30
0.0
 11
-10.16
 21
0.0
 31
0.0
  0
LINE
  5
3A2
330
36A
100
AcDbEntity
  8
AM_BOR
 62
     1
370
    25
100
AcDbLine
 10
-10.15999999999997
 20
8.460000000000036
 30
0.0
 11
0.0
 21
8.460000000000022
 31
0.0
  0
TEXT
  5
3A3
330
36A
100
AcDbEntity
  8
AM_BOR
 62
     1
370
    25
100
AcDbText
 10
-3.31825160303159
 20
5.60997067448676
 30
0.0
 40
2.000000000000293
  1
Bl
 72
     1
 11
-1.98441588336297
 21
5.60997067448676
 31
0.0
100
AcDbText
1001
GENIUS_GENTRA_14
1002
{
1070
     1
1000
GENTRATX,%s,(GENMSG gendwg 77)
1000
Bl
1000
DEU
1070
     0
1040
1.0
1070
     0
1002
}
  0
TEXT
  5
3A4
330
36A
100
AcDbEntity
  8
AM_BOR
 62
     1
370
    25
100
AcDbText
 10
-27.39162270706311
 20
51.00241935483872
 30
0.0
 40
2.000000000000196
  1
Menge
 41
0.8
100
AcDbText
1001
GENIUS_GENTRA_14
1002
{
1070
     1
1000
GENTRATX{4.85},%s,(GENMSG gendwg 75)
1000
Menge
1000
DEU
1070
     0
1040
0.8
1070
     0
1002
}
  0
ATTDEF
  5
3A5
330
36A
100
AcDbEntity
  8
AM_BOR
 62
     2
370
    35
100
AcDbText
 10
-35.71344922694797
 20
50.01451612903224
 30
0.0
 40
3.500000000000343
  1
-
 41
0.8
100
AcDbAttributeDefinition
  3
Positionsnummer
  2
GEN-TITLE-POSI{2.20}
 70
     0
1001
GENIUS_GENTRA_14
1002
{
1070
     3
1000
GENTRAPR,%s,(GENMSG gendwg 31)
1000
Positionsnummer
1000
DEU
1070
     0
1070
     0
1002
}
  0
TEXT
  5
3A6
330
36A
100
AcDbEntity
  8
AM_BOR
 62
     1
370
    25
100
AcDbText
 10
-49.20092087271354
 20
50.60161290322579
 30
0.0
 40
2.000000000000196
  1
Position
 41
0.8
100
AcDbText
1001
GENIUS_GENTRA_14
1002
{
1070
     1
1000
GENTRATX{6.37},%s,(GENMSG gendwg 74)
1000
Position
1000
DEU
1070
     0
1040
0.8
1070
     0
1002
}
  0
LINE
  5
3A7
330
36A
100
AcDbEntity
  8
AM_BOR
 62
     1
370
    25
100
AcDbLine
 10
-50.80000000000001
 20
54.99000000000006
 30
0.0
 11
-50.80000000000001
 21
48.66000000000006
 31
0.0
  0
TEXT
  5
3A8
330
36A
100
AcDbEntity
  8
AM_BOR
 62
     1
370
    25
100
AcDbText
 10
-9.23563744221148
 20
14.06744868035187
 30
0.0
 40
2.000000000000293
  1
Blatt
 72
     1
 11
-5.790271956152196
 21
14.06744868035187
 31
0.0
100
AcDbText
1001
GENIUS_GENTRA_14
1002
{
1070
     1
1000
GENTRATX,%s,(GENMSG gendwg 76)
1000
Blatt
1000
DEU
1070
     0
1040
1.0
1070
     0
1002
}
  0
MTEXT
  5
3A9
330
36A
100
AcDbEntity
  8
Logo-AM_3
100
AcDbMText
 10
-126.8211050175994
 20
8.373851265023347
 30
0.0
 40
2.799999999999998
 41
41.91976078484353
 71
     1
 72
     5
  1
{\fFuturaTEE|b0|i0|c0|p2;D-89597 Munderkingen}
 73
     1
 44
1.0
1001
ACAD
1000
MTEXTBEGIN
1070
    73
1070
     1
1070
    44
1040
1.0
1070
    74
1070
     0
1000
MTEXTEND
  0
LINE
  5
3AA
330
36A
100
AcDbEntity
  8
Logo-AM_4
100
AcDbLine
 10
-123.0680030781475
 20
9.662642679556428
 30
0.0
 11
-104.5131839562926
 21
9.662642679556428
 31
0.0
  0
LINE
  5
3AB
330
36A
100
AcDbEntity
  8
Logo-AM_3
100
AcDbLine
 10
-116.9954083107027
 20
11.52572923890164
 30
0.0
 11
-117.1563549481471
 21
11.48551699005992
 31
0.0
  0
LINE
  5
3AC
330
36A
100
AcDbEntity
  8
Logo-AM_3
100
AcDbLine
 10
-117.1441768125287
 20
12.31730403272121
 30
0.0
 11
-116.9794596687611
 21
12.29901289119897
 31
0.0
  0
LINE
  5
3AD
330
36A
100
AcDbEntity
  8
Logo-AM_3
100
AcDbLine
 10
-117.0745827386013
 20
13.45618466774993
 30
0.0
 11
-117.1860681098815
 21
13.39412827645282
 31
0.0
  0
LINE
  5
3AE
330
36A
100
AcDbEntity
  8
Logo-AM_3
100
AcDbLine
 10
-117.1885624766537
 20
14.36139366719334
 30
0.0
 11
-117.0472336408975
 21
14.39853236835296
 31
0.0
  0
LWPOLYLINE
  5
3AF
330
36A
100
AcDbEntity
  8
Logo-AM_4
100
AcDbPolyline
 90
        4
 70
     1
 43
0.0
 10
-129.54
 20
4.230000000000018
 10
-86.36000000000004
 20
4.230000000000018
 10
-86.36000000000004
 20
16.92000000000001
 10
-129.54
 20
16.92000000000001
1001
GENIUS_GENREC_14
1002
{
1000
PYDIR
1011
-129.54
1021
16.92000000000001
1031
0.0
1002
}
1002
{
1000
PXDIR
1011
-86.36000000000004
1021
4.230000000000018
1031
0.0
1002
}
1002
{
1000
PORI
1011
-129.54
1021
4.230000000000018
1031
0.0
1002
}
1002
{
1000
PINS
1011
-129.54
1021
4.230000000000018
1031
0.0
1002
}
1002
{
1000
PINS2
1011
-86.36000000000004
1021
16.92000000000001
1031
0.0
1002
}
1002
{
1000
C
1070
     1
1002
}
1001
GENIUS_GENODEF_13
1002
{
1000
HIER
1070
     0
1002
}
1002
{
1000
MANEDIT
1070
     0
1002
}
1002
{
1000
NOSEL
1070
     0
1002
}
1002
{
1000
BEHIND
1070
     0
1002
}
1002
{
1000
REACTOR
1002
}
1001
GENIUS_GENOBJ-N-REC_13
1002
{
1000
OWNER
1000
GEN
1002
}
  0
LWPOLYLINE
  5
3B0
330
36A
100
AcDbEntity
  8
Logo-AM_3
100
AcDbPolyline
 90
        4
 70
     1
 43
0.0
 10
-119.7337886842829
 20
16.11083404459754
 10
-118.4754530380387
 20
16.11083404459754
 10
-119.5421568930441
 20
13.06054679541375
 10
-120.8037877598283
 20
13.06054679541375
  0
LWPOLYLINE
  5
3B1
330
36A
100
AcDbEntity
  8
Logo-AM_3
100
AcDbPolyline
 90
        7
 70
     1
 43
0.0
 10
-123.0736841385965
 20
13.33949366388259
 42
-0.0890388355001519
 10
-122.9992269514769
 20
13.06054679541375
 10
-121.9564743398478
 20
13.06054679541375
 42
0.3997351467451784
 10
-123.2379945532484
 20
14.50792755313691
 10
-128.2142789684694
 20
14.51408066847074
 10
-128.5117590544665
 20
13.63021484235986
 10
-123.5685693997963
 20
13.63002643258787
 42
-0.2308968091832531
  0
LWPOLYLINE
  5
3B2
330
36A
100
AcDbEntity
  8
Logo-AM_3
100
AcDbPolyline
 90
        7
 70
     1
 43
0.0
 10
-123.0736841385965
 20
13.33949366388259
 42
-0.0890388354998191
 10
-122.9992269514769
 20
13.06054679541375
 10
-121.9564743398478
 20
13.06054679541375
 42
0.3997351467452128
 10
-123.2379945532484
 20
14.50792755313688
 10
-128.2142789684694
 20
14.51408066847074
 10
-128.5117590544665
 20
13.63021484235986
 10
-123.5685693997963
 20
13.63002643258787
 42
-0.2308968091832444
  0
LINE
  5
3B3
330
36A
100
AcDbEntity
  8
Logo-AM_3
100
AcDbLine
 10
-128.7796119702418
 20
12.83618754080174
 30
0.0
 11
-123.0326198905466
 21
12.8362251325945
 31
0.0
  0
LINE
  5
3B4
330
36A
100
AcDbEntity
  8
Logo-AM_3
100
AcDbLine
 10
-125.9520006391265
 20
12.3182623461617
 30
0.0
 11
-124.0969639396787
 21
12.3182623461617
 31
0.0
  0
LINE
  5
3B5
330
36A
100
AcDbEntity
  8
Logo-AM_3
100
AcDbLine
 10
-123.6591680768079
 20
11.41328496916418
 30
0.0
 11
-124.9886210472471
 21
11.41328496916418
 31
0.0
  0
LINE
  5
3B6
330
36A
100
AcDbEntity
  8
Logo-AM_3
100
AcDbLine
 10
-123.5685693997963
 20
13.63002643258787
 30
0.0
 11
-128.5117590544665
 21
13.63021484235986
 31
0.0
  0
LINE
  5
3B7
330
36A
100
AcDbEntity
  8
Logo-AM_3
100
AcDbLine
 10
-128.2142789684694
 20
14.51408066847074
 30
0.0
 11
-123.2379945532484
 21
14.50792755313699
 31
0.0
  0
LINE
  5
3B8
330
36A
100
AcDbEntity
  8
Logo-AM_3
100
AcDbLine
 10
-126.9097004013052
 20
9.595928310031863
 30
0.0
 11
-125.9520006391265
 21
12.3182623461617
 31
0.0
  0
LINE
  5
3B9
330
36A
100
AcDbEntity
  8
Logo-AM_3
100
AcDbLine
 10
-125.6208109855031
 20
9.595928310031863
 30
0.0
 11
-126.9097004013052
 21
9.595928310031863
 31
0.0
  0
LINE
  5
3BA
330
36A
100
AcDbEntity
  8
Logo-AM_3
100
AcDbLine
 10
-124.9886210472471
 20
11.41328496916418
 30
0.0
 11
-125.6208109855031
 21
9.595928310031863
 31
0.0
  0
LINE
  5
3BB
330
36A
100
AcDbEntity
  8
Logo-AM_3
100
AcDbLine
 10
-128.5117590544665
 20
13.63021484235986
 30
0.0
 11
-128.2142789684694
 21
14.51408066847074
 31
0.0
  0
LWPOLYLINE
  5
3BC
330
36A
100
AcDbEntity
  8
Logo-AM_3
100
AcDbPolyline
 90
        4
 70
     1
 43
0.0
 10
-120.9593366341998
 20
12.61051027865596
 10
-119.7001767565287
 20
12.61051027865596
 10
-120.0771239992455
 20
11.53852433210562
 10
-121.3419499630122
 20
11.53852433210562
  0
LINE
  5
3BD
330
36A
100
AcDbEntity
  8
Logo-AM_3
100
AcDbLine
 10
-123.1553043819793
 20
12.61051027865596
 30
0.0
 11
-122.0333649486004
 21
12.61051027865596
 31
0.0
  0
LINE
  5
3BE
330
36A
100
AcDbEntity
  8
Logo-AM_3
100
AcDbLine
 10
-123.1613844828435
 20
12.60377688242107
 30
0.0
 11
-123.1553043819793
 21
12.61051027865596
 31
0.0
  0
LINE
  5
3BF
330
36A
100
AcDbEntity
  8
Logo-AM_3
100
AcDbLine
 10
-123.2745161878506
 20
12.51370869790475
 30
0.0
 11
-123.1613844828435
 21
12.60377688242107
 31
0.0
  0
LINE
  5
3C0
330
36A
100
AcDbEntity
  8
Logo-AM_3
100
AcDbLine
 10
-123.3857303678019
 20
12.45238486724935
 30
0.0
 11
-123.2745161878506
 21
12.51370869790475
 31
0.0
  0
LINE
  5
3C1
330
36A
100
AcDbEntity
  8
Logo-AM_3
100
AcDbLine
 10
-123.4921774463396
 20
12.41171287196704
 30
0.0
 11
-123.3857303678019
 21
12.45238486724935
 31
0.0
  0
LINE
  5
3C2
330
36A
100
AcDbEntity
  8
Logo-AM_3
100
AcDbLine
 10
-123.6926798676943
 20
12.34718212690796
 30
0.0
 11
-123.4921774463396
 21
12.41171287196704
 31
0.0
  0
LINE
  5
3C3
330
36A
100
AcDbEntity
  8
Logo-AM_3
100
AcDbLine
 10
-123.8863862710825
 20
12.31661485889191
 30
0.0
 11
-123.6926798676943
 21
12.34718212690796
 31
0.0
  0
LINE
  5
3C4
330
36A
100
AcDbEntity
  8
Logo-AM_3
100
AcDbLine
 10
-124.0969639396787
 20
12.3182623461617
 30
0.0
 11
-123.8863862710825
 21
12.31661485889191
 31
0.0
  0
LINE
  5
3C5
330
36A
100
AcDbEntity
  8
Logo-AM_3
100
AcDbLine
 10
-123.4372659848964
 20
11.44161606443396
 30
0.0
 11
-123.6591680768079
 21
11.41328496916418
 31
0.0
  0
LINE
  5
3C6
330
36A
100
AcDbEntity
  8
Logo-AM_3
100
AcDbLine
 10
-123.1239808094485
 20
11.52189778627047
 30
0.0
 11
-123.4372659848964
 21
11.44161606443396
 31
0.0
  0
LINE
  5
3C7
330
36A
100
AcDbEntity
  8
Logo-AM_3
100
AcDbLine
 10
-122.8388106205209
 20
11.64633438577829
 30
0.0
 11
-123.1239808094485
 21
11.52189778627047
 31
0.0
  0
LINE
  5
3C8
330
36A
100
AcDbEntity
  8
Logo-AM_3
100
AcDbLine
 10
-122.565691172935
 20
11.81894057309768
 30
0.0
 11
-122.8388106205209
 21
11.64633438577829
 31
0.0
  0
LINE
  5
3C9
330
36A
100
AcDbEntity
  8
Logo-AM_3
100
AcDbLine
 10
-122.3849493758235
 20
11.97950471015753
 30
0.0
 11
-122.565691172935
 21
11.81894057309768
 31
0.0
  0
LINE
  5
3CA
330
36A
100
AcDbEntity
  8
Logo-AM_3
100
AcDbLine
 10
-122.1961748877986
 20
12.24042065281963
 30
0.0
 11
-122.3849493758235
 21
11.97950471015753
 31
0.0
  0
LINE
  5
3CB
330
36A
100
AcDbEntity
  8
Logo-AM_3
100
AcDbLine
 10
-122.0515819047685
 20
12.53345011628067
 30
0.0
 11
-122.1961748877986
 21
12.24042065281963
 31
0.0
  0
LINE
  5
3CC
330
36A
100
AcDbEntity
  8
Logo-AM_3
100
AcDbLine
 10
-122.0333649486004
 20
12.61051027865596
 30
0.0
 11
-122.0515819047685
 21
12.53345011628067
 31
0.0
  0
ARC
  5
3CD
330
36A
100
AcDbEntity
  8
Logo-AM_3
100
AcDbCircle
 10
-123.618925922873
 20
12.97749743338767
 30
0.0
 40
0.6544691545165327
100
AcDbArc
 50
33.58092855501881
 51
85.58715539807833
  0
ARC
  5
3CE
330
36A
100
AcDbEntity
  8
Logo-AM_3
100
AcDbCircle
 10
-123.8134631284923
 20
12.99261944629373
 30
0.0
 40
0.8170646710751997
100
AcDbArc
 50
4.76883630259079
 51
25.12136312417732
  0
LINE
  5
3CF
330
36A
100
AcDbEntity
  8
Logo-AM_3
100
AcDbLine
 10
-121.9564743398478
 20
13.06054679541375
 30
0.0
 11
-122.9992269514769
 21
13.06054679541375
 31
0.0
  0
ARC
  5
3D0
330
36A
100
AcDbEntity
  8
Logo-AM_3
100
AcDbCircle
 10
-123.3578045513183
 20
13.11082352153025
 30
0.0
 40
1.402231832033836
100
AcDbArc
 50
357.9452315121009
 51
85.09853718349395
  0
LINE
  5
3D1
330
36A
100
AcDbEntity
  8
Logo-AM_3
100
AcDbLine
 10
-118.9404125185752
 20
12.53142911629828
 30
0.0
 11
-118.9338182433912
 21
12.61051027865596
 31
0.0
  0
LINE
  5
3D2
330
36A
100
AcDbEntity
  8
Logo-AM_3
100
AcDbLine
 10
-118.9331734773618
 20
12.42133529441679
 30
0.0
 11
-118.9404125185752
 21
12.53142911629828
 31
0.0
  0
LINE
  5
3D3
330
36A
100
AcDbEntity
  8
Logo-AM_3
100
AcDbLine
 10
-118.9210036149334
 20
12.33875830398045
 30
0.0
 11
-118.9331734773618
 21
12.42133529441679
 31
0.0
  0
LINE
  5
3D4
330
36A
100
AcDbEntity
  8
Logo-AM_3
100
AcDbLine
 10
-118.9081925802834
 20
12.27602563125578
 30
0.0
 11
-118.9210036149334
 21
12.33875830398045
 31
0.0
  0
LINE
  5
3D5
330
36A
100
AcDbEntity
  8
Logo-AM_3
100
AcDbLine
 10
-118.8902583727518
 20
12.21073293051489
 30
0.0
 11
-118.9081925802834
 21
12.27602563125578
 31
0.0
  0
LINE
  5
3D6
330
36A
100
AcDbEntity
  8
Logo-AM_3
100
AcDbLine
 10
-118.8684378342373
 20
12.14824881644921
 30
0.0
 11
-118.8902583727518
 21
12.21073293051489
 31
0.0
  0
LINE
  5
3D7
330
36A
100
AcDbEntity
  8
Logo-AM_3
100
AcDbLine
 10
-118.8496810546195
 20
12.10322292552641
 30
0.0
 11
-118.8684378342373
 21
12.14824881644921
 31
0.0
  0
LINE
  5
3D8
330
36A
100
AcDbEntity
  8
Logo-AM_3
100
AcDbLine
 10
-118.8300067985847
 20
12.06503213443869
 30
0.0
 11
-118.8496810546195
 21
12.10322292552641
 31
0.0
  0
LINE
  5
3D9
330
36A
100
AcDbEntity
  8
Logo-AM_3
100
AcDbLine
 10
-118.8079925802659
 20
12.02229911260127
 30
0.0
 11
-118.8300067985847
 21
12.06503213443869
 31
0.0
  0
LINE
  5
3DA
330
36A
100
AcDbEntity
  8
Logo-AM_3
100
AcDbLine
 10
-118.765955761929
 20
11.95813046183315
 30
0.0
 11
-118.8079925802659
 21
12.02229911260127
 31
0.0
  0
LINE
  5
3DB
330
36A
100
AcDbEntity
  8
Logo-AM_3
100
AcDbLine
 10
-118.725448155597
 20
11.89629613309438
 30
0.0
 11
-118.765955761929
 21
11.95813046183315
 31
0.0
  0
LINE
  5
3DC
330
36A
100
AcDbEntity
  8
Logo-AM_3
100
AcDbLine
 10
-118.6860365701994
 20
11.85180819685058
 30
0.0
 11
-118.725448155597
 21
11.89629613309438
 31
0.0
  0
LINE
  5
3DD
330
36A
100
AcDbEntity
  8
Logo-AM_3
100
AcDbLine
 10
-118.6434629114097
 20
11.81179880621624
 30
0.0
 11
-118.6860365701994
 21
11.85180819685058
 31
0.0
  0
LINE
  5
3DE
330
36A
100
AcDbEntity
  8
Logo-AM_3
100
AcDbLine
 10
-118.6005498750969
 20
11.77147047921897
 30
0.0
 11
-118.6434629114097
 21
11.81179880621624
 31
0.0
  0
LINE
  5
3DF
330
36A
100
AcDbEntity
  8
Logo-AM_3
100
AcDbLine
 10
-118.5582759427089
 20
11.73178310551515
 30
0.0
 11
-118.6005498750969
 21
11.77147047921897
 31
0.0
  0
LINE
  5
3E0
330
36A
100
AcDbEntity
  8
Logo-AM_3
100
AcDbLine
 10
-118.496146354421
 20
11.68569376919248
 30
0.0
 11
-118.5582759427089
 21
11.73178310551515
 31
0.0
  0
LINE
  5
3E1
330
36A
100
AcDbEntity
  8
Logo-AM_3
100
AcDbLine
 10
-118.4355684587332
 20
11.64606736885906
 30
0.0
 11
-118.496146354421
 21
11.68569376919248
 31
0.0
  0
LINE
  5
3E2
330
36A
100
AcDbEntity
  8
Logo-AM_3
100
AcDbLine
 10
-118.3913664036022
 20
11.62529149161099
 30
0.0
 11
-118.4355684587332
 21
11.64606736885906
 31
0.0
  0
LINE
  5
3E3
330
36A
100
AcDbEntity
  8
Logo-AM_3
100
AcDbLine
 10
-118.3035052951684
 20
11.58399495916947
 30
0.0
 11
-118.3913664036022
 21
11.62529149161099
 31
0.0
  0
LINE
  5
3E4
330
36A
100
AcDbEntity
  8
Logo-AM_3
100
AcDbLine
 10
-118.2442297059783
 20
11.56323009118932
 30
0.0
 11
-118.3035052951684
 21
11.58399495916947
 31
0.0
  0
LINE
  5
3E5
330
36A
100
AcDbEntity
  8
Logo-AM_3
100
AcDbLine
 10
-118.183839638396
 20
11.54207480960048
 30
0.0
 11
-118.2442297059783
 21
11.56323009118932
 31
0.0
  0
LINE
  5
3E6
330
36A
100
AcDbEntity
  8
Logo-AM_3
100
AcDbLine
 10
-118.1217100501085
 20
11.52031015544725
 30
0.0
 11
-118.183839638396
 21
11.54207480960048
 31
0.0
  0
LINE
  5
3E7
330
36A
100
AcDbEntity
  8
Logo-AM_3
100
AcDbLine
 10
-118.0544883134015
 20
11.50361256512445
 30
0.0
 11
-118.1217100501085
 21
11.52031015544725
 31
0.0
  0
LINE
  5
3E8
330
36A
100
AcDbEntity
  8
Logo-AM_3
100
AcDbLine
 10
-117.9579195036158
 20
11.47747353091626
 30
0.0
 11
-118.0544883134015
 21
11.50361256512445
 31
0.0
  0
LINE
  5
3E9
330
36A
100
AcDbEntity
  8
Logo-AM_3
100
AcDbLine
 10
-117.8150787423947
 20
11.45937795585149
 30
0.0
 11
-117.9579195036158
 21
11.47747353091626
 31
0.0
  0
LINE
  5
3EA
330
36A
100
AcDbEntity
  8
Logo-AM_3
100
AcDbLine
 10
-117.5522233036746
 20
11.44387040782456
 30
0.0
 11
-117.8150787423947
 21
11.45937795585149
 31
0.0
  0
LINE
  5
3EB
330
36A
100
AcDbEntity
  8
Logo-AM_3
100
AcDbLine
 10
-117.3092559083575
 20
11.46943133349163
 30
0.0
 11
-117.5522233036746
 21
11.44387040782456
 31
0.0
  0
LINE
  5
3EC
330
36A
100
AcDbEntity
  8
Logo-AM_3
100
AcDbLine
 10
-117.1563549481471
 20
11.48551699005992
 30
0.0
 11
-117.3092559083575
 21
11.46943133349163
 31
0.0
  0
LINE
  5
3ED
330
36A
100
AcDbEntity
  8
Logo-AM_3
100
AcDbLine
 10
-117.2447622560394
 20
12.34769379851462
 30
0.0
 11
-117.1441768125287
 21
12.31730403272121
 31
0.0
  0
LINE
  5
3EE
330
36A
100
AcDbEntity
  8
Logo-AM_3
100
AcDbLine
 10
-117.371211759656
 20
12.4075547986103
 30
0.0
 11
-117.2447622560394
 21
12.34769379851462
 31
0.0
  0
LINE
  5
3EF
330
36A
100
AcDbEntity
  8
Logo-AM_3
100
AcDbLine
 10
-117.4593936231217
 20
12.47739347320129
 30
0.0
 11
-117.371211759656
 21
12.4075547986103
 31
0.0
  0
LINE
  5
3F0
330
36A
100
AcDbEntity
  8
Logo-AM_3
100
AcDbLine
 10
-117.5192915184184
 20
12.55554687653824
 30
0.0
 11
-117.4593936231217
 21
12.47739347320129
 31
0.0
  0
LINE
  5
3F1
330
36A
100
AcDbEntity
  8
Logo-AM_3
100
AcDbLine
 10
-117.5445897494761
 20
12.61051027865596
 30
0.0
 11
-117.5192915184184
 21
12.55554687653824
 31
0.0
  0
LINE
  5
3F2
330
36A
100
AcDbEntity
  8
Logo-AM_3
100
AcDbLine
 10
-118.9338182433912
 20
12.61051027865596
 30
0.0
 11
-117.5445897494761
 21
12.61051027865596
 31
0.0
  0
LINE
  5
3F3
330
36A
100
AcDbEntity
  8
Logo-AM_3
100
AcDbLine
 10
-117.503267037935
 20
13.06054679541375
 30
0.0
 11
-118.8166453501684
 21
13.06054679541375
 31
0.0
  0
LINE
  5
3F4
330
36A
100
AcDbEntity
  8
Logo-AM_3
100
AcDbLine
 10
-117.4672676316641
 20
13.12575684269217
 30
0.0
 11
-117.503267037935
 21
13.06054679541375
 31
0.0
  0
LINE
  5
3F5
330
36A
100
AcDbEntity
  8
Logo-AM_3
100
AcDbLine
 10
-117.4051778811183
 20
13.2046447378257
 30
0.0
 11
-117.4672676316641
 21
13.12575684269217
 31
0.0
  0
LINE
  5
3F6
330
36A
100
AcDbEntity
  8
Logo-AM_3
100
AcDbLine
 10
-117.3416702666132
 20
13.26679306332465
 30
0.0
 11
-117.4051778811183
 21
13.2046447378257
 31
0.0
  0
LINE
  5
3F7
330
36A
100
AcDbEntity
  8
Logo-AM_3
100
AcDbLine
 10
-117.2739335238311
 20
13.33307999870175
 30
0.0
 11
-117.3416702666132
 21
13.26679306332465
 31
0.0
  0
LINE
  5
3F8
330
36A
100
AcDbEntity
  8
Logo-AM_3
100
AcDbLine
 10
-117.1860681098815
 20
13.39412827645282
 30
0.0
 11
-117.2739335238311
 21
13.33307999870175
 31
0.0
  0
LINE
  5
3F9
330
36A
100
AcDbEntity
  8
Logo-AM_3
100
AcDbLine
 10
-117.3426401205322
 20
14.31688422334701
 30
0.0
 11
-117.1885624766537
 21
14.36139366719334
 31
0.0
  0
LINE
  5
3FA
330
36A
100
AcDbEntity
  8
Logo-AM_3
100
AcDbLine
 10
-117.4603367667769
 20
14.27330296437157
 30
0.0
 11
-117.3426401205322
 21
14.31688422334701
 31
0.0
  0
LINE
  5
3FB
330
36A
100
AcDbEntity
  8
Logo-AM_3
100
AcDbLine
 10
-117.5704230723918
 20
14.23253969755188
 30
0.0
 11
-117.4603367667769
 21
14.27330296437157
 31
0.0
  0
LINE
  5
3FC
330
36A
100
AcDbEntity
  8
Logo-AM_3
100
AcDbLine
 10
-117.7052831701635
 20
14.16084846608891
 30
0.0
 11
-117.5704230723918
 21
14.23253969755188
 31
0.0
  0
LINE
  5
3FD
330
36A
100
AcDbEntity
  8
Logo-AM_3
100
AcDbLine
 10
-117.8778970737462
 20
14.06908742245963
 30
0.0
 11
-117.7052831701635
 21
14.16084846608891
 31
0.0
  0
LINE
  5
3FE
330
36A
100
AcDbEntity
  8
Logo-AM_3
100
AcDbLine
 10
-118.0376565084316
 20
13.96998443549586
 30
0.0
 11
-117.8778970737462
 21
14.06908742245963
 31
0.0
  0
LINE
  5
3FF
330
36A
100
AcDbEntity
  8
Logo-AM_3
100
AcDbLine
 10
-118.1937426467757
 20
13.85253100621293
 30
0.0
 11
-118.0376565084316
 21
13.96998443549586
 31
0.0
  0
LINE
  5
400
330
36A
100
AcDbEntity
  8
Logo-AM_3
100
AcDbLine
 10
-118.3685944482422
 20
13.69015785419555
 30
0.0
 11
-118.1937426467757
 21
13.85253100621293
 31
0.0
  0
LINE
  5
401
330
36A
100
AcDbEntity
  8
Logo-AM_3
100
AcDbLine
 10
-118.4879558963626
 20
13.56352794203411
 30
0.0
 11
-118.3685944482422
 21
13.69015785419555
 31
0.0
  0
LINE
  5
402
330
36A
100
AcDbEntity
  8
Logo-AM_3
100
AcDbLine
 10
-118.6064200484939
 20
13.41063864314967
 30
0.0
 11
-118.4879558963626
 21
13.56352794203411
 31
0.0
  0
LINE
  5
403
330
36A
100
AcDbEntity
  8
Logo-AM_3
100
AcDbLine
 10
-118.6904422205866
 20
13.27768169899667
 30
0.0
 11
-118.6064200484939
 21
13.41063864314967
 31
0.0
  0
LWPOLYLINE
  5
404
330
36A
100
AcDbEntity
  8
Logo-AM_3
100
AcDbPolyline
 90
        3
 70
     0
 43
0.0
 10
-118.8166453501684
 20
13.06054679541375
 10
-118.7944238085747
 20
13.11314091359776
 10
-118.6904422205866
 20
13.27768169899667
  0
CIRCLE
  5
405
330
36A
100
AcDbEntity
  8
Logo-AM_4
100
AcDbCircle
 10
-87.91803099567564
 20
15.14547685978499
 30
0.0
 40
1.0
  0
TEXT
  5
406
330
36A
100
AcDbEntity
  8
Logo-AM_3
  6
AM_DIN_F_W050x2
100
AcDbText
 10
-88.26892793786615
 20
14.64101761762907
 30
0.0
 40
1.1
  1
R
100
AcDbText
  0
LWPOLYLINE
  5
407
330
36A
100
AcDbEntity
  8
Logo-AM_3
100
AcDbPolyline
 90
        5
 70
     0
 43
0.0
 10
-91.70369898983965
 20
13.06054679541375
 10
-90.63170975801316
 20
16.11083404459754
 10
-89.46575686354689
 20
16.11083404459754
 10
-90.53774609537336
 20
13.06054679541375
 10
-91.70369898983965
 20
13.06054679541375
  0
LWPOLYLINE
  5
408
330
36A
100
AcDbEntity
  8
Logo-AM_3
100
AcDbPolyline
 90
        5
 70
     0
 43
0.0
 10
-93.81584559727448
 20
13.06054679541375
 10
-92.74385636544799
 20
16.11083404459754
 10
-91.57790347098174
 20
16.11083404459754
 10
-92.64989270280819
 20
13.06054679541375
 10
-93.81584559727448
 20
13.06054679541375
  0
MTEXT
  5
409
330
36A
100
AcDbEntity
  8
Logo-AM_4
100
AcDbMText
 10
-103.3106349809958
 20
10.48618350358895
 30
0.0
 40
1.399999999999999
 41
16.41379424961802
 71
     1
 72
     5
  1
{\fArial|b0|i1|c0|p34;the driving power}
 73
     1
 44
1.0
1001
ACAD
1000
MTEXTBEGIN
1070
    73
1070
     1
1070
    44
1040
1.0
1070
    74
1070
     0
1000
MTEXTEND
  0
LWPOLYLINE
  5
40A
330
36A
100
AcDbEntity
  8
Logo-AM_3
100
AcDbPolyline
 90
       46
 70
     0
 43
0.0
 10
-100.4398658606083
 20
13.89792956723187
 10
-100.3735701477946
 20
13.95842078145401
 10
-100.3184553336992
 20
13.99742641854783
 10
-100.2566758319574
 20
14.04114876188376
 10
-100.195495001252
 20
14.08444741613419
 10
-100.1355099892837
 20
14.12689977030254
 10
-100.0658528853069
 20
14.16613903261537
 10
-99.94114148214434
 20
14.22603033071965
 10
-99.83578530050863
 20
14.26789081278826
 10
-99.71617778374984
 20
14.31541368456305
 10
-99.63903507435638
 20
14.33639046871582
 10
-99.5603357186483
 20
14.35373571891267
 10
-99.41380583571941
 20
14.36824914599816
 10
-99.25005886145806
 20
14.38220299897176
 10
-99.11550728350952
 20
14.38600859523745
 10
-99.00458167683156
 20
14.38167749501673
 10
-98.8716373702919
 20
14.37018748025895
 10
-98.89966450990051
 20
14.31273632961875
 10
-98.92409687219835
 20
14.248822987923
 10
-98.94206157434613
 20
14.20573489415602
 10
-98.98733519539296
 20
14.08724236708309
 10
-99.03535679132895
 20
13.95449662207858
 10
-99.07891605152627
 20
13.83408607898778
 10
-99.12115695808964
 20
13.71731985116591
 10
-99.1610020364083
 20
13.6071763937675
 10
-99.21160019376944
 20
13.46730827893583
 10
-99.28104889110413
 20
13.47918475573812
 10
-99.32144559147587
 20
13.49856271408526
 10
-99.39900608058593
 20
13.52116907582905
 10
-99.52403760011833
 20
13.55761170006153
 10
-99.68662867687729
 20
13.56838540181598
 10
-99.85268644820422
 20
13.55351233667653
 10
-99.97259440595602
 20
13.53614593855133
 10
-100.0932793646289
 20
13.5076050434123
 10
-100.1956509767861
 20
13.48216332938574
 10
-100.2976857133326
 20
13.44933333126806
 10
-100.3785581053936
 20
13.41254269155439
 10
-100.4486773816925
 20
13.37318156241969
 10
-100.5157860144404
 20
13.33247869664575
 10
-100.5621268637028
 20
13.30334984011421
 10
-100.6107399355174
 20
13.26789878333494
 10
-100.6606663776829
 20
13.22325786845437
 10
-100.7197882491896
 20
13.16548689266102
 10
-100.8059390893399
 20
13.06054679541375
 10
-100.8059390893399
 20
13.06054679541375
 10
-101.9718919838061
 20
13.06054679541375
  0
LWPOLYLINE
  5
40B
330
36A
100
AcDbEntity
  8
Logo-AM_3
100
AcDbPolyline
 90
        6
 70
     0
 43
0.0
 10
-101.9718919838061
 20
13.06054679541375
 10
-101.517415245237
 20
14.35373571891267
 10
-100.3514623507707
 20
14.35373571891267
 10
-100.5261013528226
 20
13.85680990533745
 10
-100.491436311815
 20
13.850874349344
 10
-100.4398658606083
 20
13.89792956723187
  0
LWPOLYLINE
  5
40C
330
36A
100
AcDbEntity
  8
Logo-AM_3
100
AcDbPolyline
 90
        5
 70
     0
 43
0.0
 10
-102.1300536749661
 20
12.6105062767858
 10
-102.507114732359
 20
11.53759947755458
 10
-101.3404841691935
 20
11.53952774710339
 10
-100.9641007804999
 20
12.6105062767858
 10
-102.1300536749661
 20
12.6105062767858
  0
LINE
  5
40D
330
36A
100
AcDbEntity
  8
Logo-AM_3
100
AcDbLine
 10
-109.3636791955992
 20
12.26903320234845
 30
0.0
 11
-109.324394980008
 21
12.16433410149005
 31
0.0
  0
LINE
  5
40E
330
36A
100
AcDbEntity
  8
Logo-AM_3
100
AcDbLine
 10
-108.1490476152644
 20
12.61051027865596
 30
0.0
 11
-109.3952381923132
 21
12.61051027865596
 31
0.0
  0
LWPOLYLINE
  5
40F
330
36A
100
AcDbEntity
  8
Logo-AM_3
100
AcDbPolyline
 90
       63
 70
     0
 43
0.0
 10
-113.7866984057365
 20
13.06054679541375
 10
-113.3290293174971
 20
14.35373571891267
 10
-112.1621732790764
 20
14.35373571891267
 10
-112.2757525156915
 20
14.03280643943017
 10
-112.1716692980297
 20
14.03280643943017
 10
-112.056669674165
 20
14.09734631972645
 10
-111.9370396699326
 20
14.17057184891536
 10
-111.8146379976408
 20
14.23394608104826
 10
-111.677488718771
 20
14.29142643177846
 10
-111.5583543711544
 20
14.3344444292365
 10
-111.4921896797857
 20
14.35607014949454
 10
-111.4303109603272
 20
14.37168637845451
 10
-111.3697589954668
 20
14.38696777657509
 10
-111.3109269621357
 20
14.3960489406615
 10
-111.2240467398663
 20
14.40479416227521
 10
-111.1041570289734
 20
14.41686206522911
 10
-111.0111495756169
 20
14.42622404394052
 10
-110.8488383264641
 20
14.42710576047096
 10
-110.6085050027548
 20
14.40182276563445
 10
-110.467957195988
 20
14.37794376404776
 10
-110.3864399054075
 20
14.35125566432765
 10
-110.2855370091573
 20
14.31822087455486
 10
-110.1981086141861
 20
14.2725964700507
 10
-110.1289640653736
 20
14.23651346903801
 10
-110.0513250098522
 20
14.17406682498671
 10
-109.9880795901674
 20
14.10664513487808
 10
-109.9416992512786
 20
14.04343653615313
 10
-109.8836576462712
 20
13.96433559363837
 10
-109.8629937186308
 20
13.89314033711656
 10
-109.8517503314335
 20
13.80605384843869
 10
-109.8441895417147
 20
13.7474911914131
 10
-109.8439692514769
 20
13.67289459314128
 10
-109.8606229493041
 20
13.58016656389026
 10
-109.885205330713
 20
13.4969485601768
 10
-109.9042389092017
 20
13.43433690870069
 10
-109.9286285702563
 20
13.35410622803951
 10
-109.9534856740322
 20
13.28968225023749
 10
-109.9923852372052
 20
13.18886340114906
 10
-110.0335295705435
 20
13.06026200446467
 10
-110.0335295705435
 20
13.06026200446467
 10
-111.1872515896611
 20
13.06054679541375
 10
-111.1098017814667
 20
13.27938882922788
 10
-111.0999102694202
 20
13.38096182089401
 10
-111.130546221699
 20
13.4766467955489
 10
-111.2071397469301
 20
13.5608508182749
 10
-111.2875636773295
 20
13.62208960224206
 10
-111.3564982144906
 20
13.64632988475199
 10
-111.4126677715356
 20
13.65653579292956
 10
-111.5007506900049
 20
13.66998655961646
 10
-111.6143344139783
 20
13.67625284926291
 10
-111.8010110852486
 20
13.66201170009475
 10
-111.9605104684904
 20
13.62937413729145
 10
-112.0718983037955
 20
13.59702671086023
 10
-112.1944439906054
 20
13.52651245604733
 10
-112.2908400909857
 20
13.45599931286796
 10
-112.3785550957732
 20
13.37917145239208
 10
-112.4680136415575
 20
13.2895399611354
 10
-112.5312444831068
 20
13.20719125490535
 10
-112.5544632406635
 20
13.17233153651449
 10
-112.5829786423499
 20
13.12604644787524
 10
-112.6044049243269
 20
13.08832793785839
 10
-112.6166078293894
 20
13.06054679541375
 10
-113.7866984057365
 20
13.06054679541375
  0
LWPOLYLINE
  5
410
330
36A
100
AcDbEntity
  8
Logo-AM_3
100
AcDbPolyline
 90
        5
 70
     0
 43
0.0
 10
-114.3256576211648
 20
11.53766463990149
 10
-113.9459696448852
 20
12.61051027865596
 10
-112.7791136064645
 20
12.61051027865596
 10
-113.158801582744
 20
11.53766463990149
 10
-114.3256576211648
 20
11.53766463990149
  0
ARC
  5
411
330
36A
100
AcDbEntity
  8
Logo-AM_3
100
AcDbCircle
 10
-115.4665877659451
 20
14.13439235225064
 30
0.0
 40
0.05
100
AcDbArc
 50
245.4153578445058
 51
342.28397340032
1001
GENIUS_GENODEF_13
1002
{
1000
HIER
1070
     0
1002
}
1002
{
1000
MANEDIT
1070
     0
1002
}
1002
{
1000
NOSEL
1070
     0
1002
}
1002
{
1000
BEHIND
1070
     0
1002
}
1002
{
1000
REACTOR
1002
}
1001
GENIUS_GENOBJ-N-FIL_13
1002
{
1000
OWNER
1000
GEN
1002
}
  0
ARC
  5
412
330
36A
100
AcDbEntity
  8
Logo-AM_3
100
AcDbCircle
 10
-116.3705283633766
 20
11.70630769434507
 30
0.0
 40
0.0830183372377059
100
AcDbArc
 50
331.2797734351676
 51
106.1102832483707
1001
GENIUS_GENODEF_13
1002
{
1000
HIER
1070
     0
1002
}
1002
{
1000
MANEDIT
1070
     0
1002
}
1002
{
1000
NOSEL
1070
     0
1002
}
1002
{
1000
BEHIND
1070
     0
1002
}
1002
{
1000
REACTOR
1002
}
1001
GENIUS_GENOBJ-N-FIL_13
1002
{
1000
OWNER
1000
GEN
1002
}
  0
LINE
  5
413
330
36A
100
AcDbEntity
  8
Logo-AM_3
100
AcDbLine
 10
-116.8304367663436
 20
11.58202840603047
 30
0.0
 11
-116.9954083107027
 21
11.52572923890164
 31
0.0
  0
LINE
  5
414
330
36A
100
AcDbEntity
  8
Logo-AM_3
100
AcDbLine
 10
-116.6433344388465
 20
11.66245416543296
 30
0.0
 11
-116.8304367663436
 21
11.58202840603047
 31
0.0
  0
LINE
  5
415
330
36A
100
AcDbEntity
  8
Logo-AM_3
100
AcDbLine
 10
-116.5258716878216
 20
11.71858236144845
 30
0.0
 11
-116.6433344388465
 21
11.66245416543296
 31
0.0
  0
LINE
  5
416
330
36A
100
AcDbEntity
  8
Logo-AM_3
100
AcDbLine
 10
-116.3935648798741
 20
11.78606584894618
 30
0.0
 11
-116.5258716878216
 21
11.71858236144845
 31
0.0
  0
LINE
  5
417
330
36A
100
AcDbEntity
  8
Logo-AM_3
100
AcDbLine
 10
-116.3433288893811
 20
11.53787167617884
 30
0.0
 11
-116.2977232258687
 21
11.66641463391883
 31
0.0
  0
LINE
  5
418
330
36A
100
AcDbEntity
  8
Logo-AM_3
100
AcDbLine
 10
-115.2036506790122
 20
11.53766463990149
 30
0.0
 11
-116.3433288893811
 21
11.53787167617884
 31
0.0
  0
LINE
  5
419
330
36A
100
AcDbEntity
  8
Logo-AM_3
100
AcDbLine
 10
-115.1733085445499
 20
11.60894970606927
 30
0.0
 11
-115.2036506790122
 21
11.53766463990149
 31
0.0
  0
LINE
  5
41A
330
36A
100
AcDbEntity
  8
Logo-AM_3
100
AcDbLine
 10
-115.1235030826232
 20
11.72596143618884
 30
0.0
 11
-115.1733085445499
 21
11.60894970606927
 31
0.0
  0
LINE
  5
41B
330
36A
100
AcDbEntity
  8
Logo-AM_3
100
AcDbLine
 10
-115.1010895288329
 20
11.7922498750581
 30
0.0
 11
-115.1235030826232
 21
11.72596143618884
 31
0.0
  0
LINE
  5
41C
330
36A
100
AcDbEntity
  8
Logo-AM_3
100
AcDbLine
 10
-115.0659071042769
 20
11.89630245062327
 30
0.0
 11
-115.1010895288329
 21
11.7922498750581
 31
0.0
  0
LINE
  5
41D
330
36A
100
AcDbEntity
  8
Logo-AM_3
100
AcDbLine
 10
-115.0236210182248
 20
12.0213642171108
 30
0.0
 11
-115.0659071042769
 21
11.89630245062327
 31
0.0
  0
LINE
  5
41E
330
36A
100
AcDbEntity
  8
Logo-AM_3
100
AcDbLine
 10
-114.9808343280332
 20
12.14790652823737
 30
0.0
 11
-115.0236210182248
 21
12.0213642171108
 31
0.0
  0
LINE
  5
41F
330
36A
100
AcDbEntity
  8
Logo-AM_3
100
AcDbLine
 10
-114.9398122360653
 20
12.26923001228368
 30
0.0
 11
-114.9808343280332
 21
12.14790652823737
 31
0.0
  0
LINE
  5
420
330
36A
100
AcDbEntity
  8
Logo-AM_3
100
AcDbLine
 10
-114.9015905039033
 20
12.38227138803339
 30
0.0
 11
-114.9398122360653
 21
12.26923001228368
 31
0.0
  0
LINE
  5
421
330
36A
100
AcDbEntity
  8
Logo-AM_3
100
AcDbLine
 10
-114.8789215579741
 20
12.443763612807
 30
0.0
 11
-114.9015905039033
 21
12.38227138803339
 31
0.0
  0
LINE
  5
422
330
36A
100
AcDbEntity
  8
Logo-AM_3
100
AcDbLine
 10
-114.8350798560887
 20
12.5626894682577
 30
0.0
 11
-114.8789215579741
 21
12.443763612807
 31
0.0
  0
LINE
  5
423
330
36A
100
AcDbEntity
  8
Logo-AM_3
100
AcDbLine
 10
-114.8146864428418
 20
12.61051027865596
 30
0.0
 11
-114.8350798560887
 21
12.5626894682577
 31
0.0
  0
LINE
  5
424
330
36A
100
AcDbEntity
  8
Logo-AM_3
100
AcDbLine
 10
-116.0440520683506
 20
12.61051027865596
 30
0.0
 11
-114.8146864428418
 21
12.61051027865596
 31
0.0
  0
LINE
  5
425
330
36A
100
AcDbEntity
  8
Logo-AM_3
100
AcDbLine
 10
-116.0866812642853
 20
12.55503220794668
 30
0.0
 11
-116.0440520683506
 21
12.61051027865596
 31
0.0
  0
LINE
  5
426
330
36A
100
AcDbEntity
  8
Logo-AM_3
100
AcDbLine
 10
-116.12488049918
 20
12.52082333348954
 30
0.0
 11
-116.0866812642853
 21
12.55503220794668
 31
0.0
  0
LINE
  5
427
330
36A
100
AcDbEntity
  8
Logo-AM_3
100
AcDbLine
 10
-116.1624472155083
 20
12.48946721749084
 30
0.0
 11
-116.12488049918
 21
12.52082333348954
 31
0.0
  0
LINE
  5
428
330
36A
100
AcDbEntity
  8
Logo-AM_3
100
AcDbLine
 10
-116.206954192397
 20
12.4648077008224
 30
0.0
 11
-116.1624472155083
 21
12.48946721749084
 31
0.0
  0
LINE
  5
429
330
36A
100
AcDbEntity
  8
Logo-AM_3
100
AcDbLine
 10
-116.2464511431926
 20
12.44421962341394
 30
0.0
 11
-116.206954192397
 21
12.4648077008224
 31
0.0
  0
LINE
  5
42A
330
36A
100
AcDbEntity
  8
Logo-AM_3
100
AcDbLine
 10
-116.2869771847395
 20
12.4230951248484
 30
0.0
 11
-116.2464511431926
 21
12.44421962341394
 31
0.0
  0
LINE
  5
42B
330
36A
100
AcDbEntity
  8
Logo-AM_3
100
AcDbLine
 10
-116.3308803486726
 20
12.40021027628859
 30
0.0
 11
-116.2869771847395
 21
12.4230951248484
 31
0.0
  0
LINE
  5
42C
330
36A
100
AcDbEntity
  8
Logo-AM_3
100
AcDbLine
 10
-116.3737555895493
 20
12.38456716098136
 30
0.0
 11
-116.3308803486726
 21
12.40021027628859
 31
0.0
  0
LINE
  5
42D
330
36A
100
AcDbEntity
  8
Logo-AM_3
100
AcDbLine
 10
-116.4353072074982
 20
12.36210993305135
 30
0.0
 11
-116.3737555895493
 21
12.38456716098136
 31
0.0
  0
LINE
  5
42E
330
36A
100
AcDbEntity
  8
Logo-AM_3
100
AcDbLine
 10
-116.4944522425085
 20
12.3405307516031
 30
0.0
 11
-116.4353072074982
 21
12.36210993305135
 31
0.0
  0
LINE
  5
42F
330
36A
100
AcDbEntity
  8
Logo-AM_3
100
AcDbLine
 10
-116.5776246894543
 20
12.31892885921129
 30
0.0
 11
-116.4944522425085
 21
12.3405307516031
 31
0.0
  0
LINE
  5
430
330
36A
100
AcDbEntity
  8
Logo-AM_3
100
AcDbLine
 10
-116.7057391725502
 20
12.29897477193972
 30
0.0
 11
-116.5776246894543
 21
12.31892885921129
 31
0.0
  0
LINE
  5
431
330
36A
100
AcDbEntity
  8
Logo-AM_3
100
AcDbLine
 10
-116.9794596687611
 20
12.29901289119897
 30
0.0
 11
-116.7057391725502
 21
12.29897477193972
 31
0.0
  0
LINE
  5
432
330
36A
100
AcDbEntity
  8
Logo-AM_3
100
AcDbLine
 10
-116.9362860269648
 20
13.52106100119403
 30
0.0
 11
-117.0745827386013
 21
13.45618466774993
 31
0.0
  0
LINE
  5
433
330
36A
100
AcDbEntity
  8
Logo-AM_3
100
AcDbLine
 10
-116.8120992408012
 20
13.56196214865412
 30
0.0
 11
-116.9362860269648
 21
13.52106100119403
 31
0.0
  0
LINE
  5
434
330
36A
100
AcDbEntity
  8
Logo-AM_3
100
AcDbLine
 10
-116.6952797302956
 20
13.58529133446831
 30
0.0
 11
-116.8120992408012
 21
13.56196214865412
 31
0.0
  0
LINE
  5
435
330
36A
100
AcDbEntity
  8
Logo-AM_3
100
AcDbLine
 10
-116.6080451470802
 20
13.60598983599783
 30
0.0
 11
-116.6952797302956
 21
13.58529133446831
 31
0.0
  0
LINE
  5
436
330
36A
100
AcDbEntity
  8
Logo-AM_3
100
AcDbLine
 10
-116.4963322630765
 20
13.61100769278431
 30
0.0
 11
-116.6080451470802
 21
13.60598983599783
 31
0.0
  0
LINE
  5
437
330
36A
100
AcDbEntity
  8
Logo-AM_3
100
AcDbLine
 10
-116.3974476464604
 20
13.60540361544577
 30
0.0
 11
-116.4963322630765
 21
13.61100769278431
 31
0.0
  0
LINE
  5
438
330
36A
100
AcDbEntity
  8
Logo-AM_3
100
AcDbLine
 10
-116.3184462691925
 20
13.58386937706353
 30
0.0
 11
-116.3974476464604
 21
13.60540361544577
 31
0.0
  0
LINE
  5
439
330
36A
100
AcDbEntity
  8
Logo-AM_3
100
AcDbLine
 10
-116.2356047498447
 20
13.56128839066463
 30
0.0
 11
-116.3184462691925
 21
13.58386937706353
 31
0.0
  0
LINE
  5
43A
330
36A
100
AcDbEntity
  8
Logo-AM_3
100
AcDbLine
 10
-116.1552720753521
 20
13.52679172926144
 30
0.0
 11
-116.2356047498447
 21
13.56128839066463
 31
0.0
  0
LINE
  5
43B
330
36A
100
AcDbEntity
  8
Logo-AM_3
100
AcDbLine
 10
-116.0718038618647
 20
13.47912272064894
 30
0.0
 11
-116.1552720753521
 21
13.52679172926144
 31
0.0
  0
LINE
  5
43C
330
36A
100
AcDbEntity
  8
Logo-AM_3
100
AcDbLine
 10
-116.0057052106949
 20
13.42049694353403
 30
0.0
 11
-116.0718038618647
 21
13.47912272064894
 31
0.0
  0
LINE
  5
43D
330
36A
100
AcDbEntity
  8
Logo-AM_3
100
AcDbLine
 10
-115.9448290106857
 20
13.35275776949442
 30
0.0
 11
-116.0057052106949
 21
13.42049694353403
 31
0.0
  0
LINE
  5
43E
330
36A
100
AcDbEntity
  8
Logo-AM_3
100
AcDbLine
 10
-115.8990162212926
 20
13.27372747139583
 30
0.0
 11
-115.9448290106857
 21
13.35275776949442
 31
0.0
  0
LINE
  5
43F
330
36A
100
AcDbEntity
  8
Logo-AM_3
100
AcDbLine
 10
-115.8694779591306
 20
13.21828136179334
 30
0.0
 11
-115.8990162212926
 21
13.27372747139583
 31
0.0
  0
LINE
  5
440
330
36A
100
AcDbEntity
  8
Logo-AM_3
100
AcDbLine
 10
-115.8473955231607
 20
13.11641903769902
 30
0.0
 11
-115.8694779591306
 21
13.21828136179334
 31
0.0
  0
LINE
  5
441
330
36A
100
AcDbEntity
  8
Logo-AM_3
100
AcDbLine
 10
-115.8450094139489
 20
13.06054679541375
 30
0.0
 11
-115.8473955231607
 21
13.11641903769902
 31
0.0
  0
LINE
  5
442
330
36A
100
AcDbEntity
  8
Logo-AM_3
100
AcDbLine
 10
-114.6631998078267
 20
13.06054679541375
 30
0.0
 11
-115.8450094139489
 21
13.06054679541375
 31
0.0
  0
LINE
  5
443
330
36A
100
AcDbEntity
  8
Logo-AM_3
100
AcDbLine
 10
-114.2047413765872
 20
14.36372027717942
 30
0.0
 11
-114.6631998078267
 21
13.06054679541375
 31
0.0
  0
LINE
  5
444
330
36A
100
AcDbEntity
  8
Logo-AM_3
100
AcDbLine
 10
-115.3407514215023
 20
14.36399748283813
 30
0.0
 11
-114.2047413765872
 21
14.36372027717942
 31
0.0
  0
LINE
  5
445
330
36A
100
AcDbEntity
  8
Logo-AM_3
100
AcDbLine
 10
-115.3598755587764
 20
14.30413146142999
 30
0.0
 11
-115.3407514215023
 21
14.36399748283813
 31
0.0
  0
LINE
  5
446
330
36A
100
AcDbEntity
  8
Logo-AM_3
100
AcDbLine
 10
-115.3906686429275
 20
14.20773707727557
 30
0.0
 11
-115.3598755587764
 21
14.30413146142999
 31
0.0
  0
LINE
  5
447
330
36A
100
AcDbEntity
  8
Logo-AM_3
100
AcDbLine
 10
-115.4189589459055
 20
14.11917737602189
 30
0.0
 11
-115.3906686429275
 21
14.20773707727557
 31
0.0
  0
LINE
  5
448
330
36A
100
AcDbEntity
  8
Logo-AM_3
100
AcDbLine
 10
-115.5250236955756
 20
14.10614299422499
 30
0.0
 11
-115.487389619003
 21
14.08892496933328
 31
0.0
  0
LINE
  5
449
330
36A
100
AcDbEntity
  8
Logo-AM_3
100
AcDbLine
 10
-115.5971863893173
 20
14.15628930765564
 30
0.0
 11
-115.5250236955756
 21
14.10614299422499
 31
0.0
  0
LINE
  5
44A
330
36A
100
AcDbEntity
  8
Logo-AM_3
100
AcDbLine
 10
-115.6407033684967
 20
14.19770902165822
 30
0.0
 11
-115.5971863893173
 21
14.15628930765564
 31
0.0
  0
LINE
  5
44B
330
36A
100
AcDbEntity
  8
Logo-AM_3
100
AcDbLine
 10
-115.7353131803666
 20
14.25679405554675
 30
0.0
 11
-115.6407033684967
 21
14.19770902165822
 31
0.0
  0
LINE
  5
44C
330
36A
100
AcDbEntity
  8
Logo-AM_3
100
AcDbLine
 10
-115.8171660535145
 20
14.29924964091506
 30
0.0
 11
-115.7353131803666
 21
14.25679405554675
 31
0.0
  0
LINE
  5
44D
330
36A
100
AcDbEntity
  8
Logo-AM_3
100
AcDbLine
 10
-116.0045191552113
 20
14.37743437894446
 30
0.0
 11
-115.8171660535145
 21
14.29924964091506
 31
0.0
  0
LINE
  5
44E
330
36A
100
AcDbEntity
  8
Logo-AM_3
100
AcDbLine
 10
-116.1308123892409
 20
14.41100319975311
 30
0.0
 11
-116.0045191552113
 21
14.37743437894446
 31
0.0
  0
LINE
  5
44F
330
36A
100
AcDbEntity
  8
Logo-AM_3
100
AcDbLine
 10
-116.2282085180223
 20
14.43689115186424
 30
0.0
 11
-116.1308123892409
 21
14.41100319975311
 31
0.0
  0
LINE
  5
450
330
36A
100
AcDbEntity
  8
Logo-AM_3
100
AcDbLine
 10
-116.3338923148444
 20
14.4498366812233
 30
0.0
 11
-116.2282085180223
 21
14.43689115186424
 31
0.0
  0
LINE
  5
451
330
36A
100
AcDbEntity
  8
Logo-AM_3
100
AcDbLine
 10
-116.730112276245
 20
14.4498366812233
 30
0.0
 11
-116.3338923148444
 21
14.4498366812233
 31
0.0
  0
LINE
  5
452
330
36A
100
AcDbEntity
  8
Logo-AM_3
100
AcDbLine
 10
-116.8203227916197
 20
14.43684699169643
 30
0.0
 11
-116.730112276245
 21
14.4498366812233
 31
0.0
  0
LINE
  5
453
330
36A
100
AcDbEntity
  8
Logo-AM_3
100
AcDbLine
 10
-116.9425839928204
 20
14.41924222535425
 30
0.0
 11
-116.8203227916197
 21
14.43684699169643
 31
0.0
  0
LINE
  5
454
330
36A
100
AcDbEntity
  8
Logo-AM_3
100
AcDbLine
 10
-117.0472336408975
 20
14.39853236835296
 30
0.0
 11
-116.9425839928204
 21
14.41924222535425
 31
0.0
  0
LINE
  5
455
330
36A
100
AcDbEntity
  8
Logo-AM_3
100
AcDbLine
 10
-109.4046023686806
 20
12.41734126045475
 30
0.0
 11
-109.3636791955992
 21
12.26903320234845
 31
0.0
  0
LINE
  5
456
330
36A
100
AcDbEntity
  8
Logo-AM_3
100
AcDbLine
 10
-109.4046023686806
 20
12.53078206047843
 30
0.0
 11
-109.4046023686806
 21
12.41734126045475
 31
0.0
  0
LINE
  5
457
330
36A
100
AcDbEntity
  8
Logo-AM_3
100
AcDbLine
 10
-109.3952381923132
 20
12.61051027865596
 30
0.0
 11
-109.4046023686806
 21
12.53078206047843
 31
0.0
  0
LWPOLYLINE
  5
458
330
36A
100
AcDbEntity
  8
Logo-AM_3
100
AcDbPolyline
 90
        5
 70
     0
 43
0.0
 10
-111.7262108050893
 20
11.53766463990149
 10
-111.3465228288097
 20
12.61051027865596
 10
-110.1796667903891
 20
12.61051027865596
 10
-110.5593547666686
 20
11.53766463990149
 10
-111.7262108050893
 20
11.53766463990149
  0
LWPOLYLINE
  5
459
330
36A
100
AcDbEntity
  8
Logo-AM_3
100
AcDbPolyline
 90
       56
 70
     0
 43
0.0
 10
-105.365850407708
 20
13.06054679541375
 10
-109.2797448777397
 20
13.06054679541375
 10
-109.2008966323219
 20
13.22946878097508
 10
-109.1161966146001
 20
13.37833646708958
 10
-109.0285758440941
 20
13.49947381120381
 10
-108.9442003544595
 20
13.60353033523842
 10
-108.8619297648752
 20
13.69013885243697
 10
-108.7807264381831
 20
13.77562383257287
 10
-108.696288091021
 20
13.8545843260951
 10
-108.614697378714
 20
13.9208383099637
 10
-108.5302312387757
 20
13.97894229621755
 10
-108.4655901083448
 20
14.02340872213375
 10
-108.3803010755505
 20
14.08020068021045
 10
-108.3367459613055
 20
14.10920300490784
 10
-108.2599990575713
 20
14.14690369366707
 10
-108.1743027503549
 20
14.18900063372572
 10
-108.0924247192429
 20
14.22873435909486
 10
-108.0449700623504
 20
14.25176312858093
 10
-107.9910740537457
 20
14.27073300333876
 10
-107.9376633765369
 20
14.28953205513522
 10
-107.87333663428
 20
14.31217325391381
 10
-107.7990839626314
 20
14.33578920631243
 10
-107.7230354979325
 20
14.35997630803467
 10
-107.6627385675951
 20
14.37915365754972
 10
-107.5954319036728
 20
14.40056044246407
 10
-107.5219010498015
 20
14.42394682178616
 10
-107.4393418585932
 20
14.43896757888723
 10
-107.337166275333
 20
14.4570847061679
 10
-107.2489997899993
 20
14.46696667504983
 10
-107.1447323636777
 20
14.47865328655996
 10
-107.0477524898756
 20
14.49041796415684
 10
-106.95169619239
 20
14.50207060224312
 10
-106.7902095381769
 20
14.50207060224312
 10
-106.6269755363874
 20
14.49726400639287
 10
-106.4440232805468
 20
14.47950190004229
 10
-106.3143879073036
 20
14.45547107521128
 10
-106.2187192028396
 20
14.43760500634533
 10
-106.1277661271715
 20
14.41252902643958
 10
-106.0185890788255
 20
14.38242865379814
 10
-105.9176314712777
 20
14.33521188255685
 10
-105.829993586736
 20
14.29422460039973
 10
-105.7503599049637
 20
14.24953681602818
 10
-105.6625433298018
 20
14.18789146834655
 10
-105.5836159234168
 20
14.12261406853184
 10
-105.5219338307984
 20
14.06305903099968
 10
-105.464434343191
 20
13.9982793240776
 10
-105.4173904616064
 20
13.93245556806499
 10
-105.3755716635251
 20
13.85200406494204
 10
-105.3536179729863
 20
13.78618030892966
 10
-105.3356891559292
 20
13.71790458593199
 10
-105.3192542558768
 20
13.61039517920579
 10
-105.3192542558768
 20
13.49990072110739
 10
-105.3283192862423
 20
13.32015616792586
 10
-105.3492359373076
 20
13.15590645347214
 10
-105.3631576546427
 20
13.07103322549295
 10
-105.365850407708
 20
13.06054679541375
  0
LINE
  5
45A
330
36A
100
AcDbEntity
  8
Logo-AM_3
100
AcDbLine
 10
-108.1462329264859
 20
12.50880173036552
 30
0.0
 11
-108.149311410798
 21
12.61051027865596
 31
0.0
  0
LINE
  5
45B
330
36A
100
AcDbEntity
  8
Logo-AM_3
100
AcDbLine
 10
-108.1418780858981
 20
12.45400684885675
 30
0.0
 11
-108.1462329264859
 21
12.50880173036552
 31
0.0
  0
LINE
  5
45C
330
36A
100
AcDbEntity
  8
Logo-AM_3
100
AcDbLine
 10
-108.1294589942977
 20
12.41734126045475
 30
0.0
 11
-108.1418780858981
 21
12.45400684885675
 31
0.0
  0
LINE
  5
45D
330
36A
100
AcDbEntity
  8
Logo-AM_3
100
AcDbLine
 10
-108.0905990221272
 20
12.35738253868743
 30
0.0
 11
-108.1294589942977
 21
12.41734126045475
 31
0.0
  0
LINE
  5
45E
330
36A
100
AcDbEntity
  8
Logo-AM_3
100
AcDbLine
 10
-108.0555481757165
 20
12.3147379996671
 30
0.0
 11
-108.0905990221272
 21
12.35738253868743
 31
0.0
  0
LINE
  5
45F
330
36A
100
AcDbEntity
  8
Logo-AM_3
100
AcDbLine
 10
-108.005447361321
 20
12.27465964553966
 30
0.0
 11
-108.0555481757165
 21
12.3147379996671
 31
0.0
  0
LINE
  5
460
330
36A
100
AcDbEntity
  8
Logo-AM_3
100
AcDbLine
 10
-107.9679237791988
 20
12.25686295214399
 30
0.0
 11
-108.005447361321
 21
12.27465964553966
 31
0.0
  0
LINE
  5
461
330
36A
100
AcDbEntity
  8
Logo-AM_3
100
AcDbLine
 10
-107.9229666676047
 20
12.23554068263382
 30
0.0
 11
-107.9679237791988
 21
12.25686295214399
 31
0.0
  0
LINE
  5
462
330
36A
100
AcDbEntity
  8
Logo-AM_3
100
AcDbLine
 10
-107.8429623356119
 20
12.20812665211628
 30
0.0
 11
-107.9229666676047
 21
12.23554068263382
 31
0.0
  0
LINE
  5
463
330
36A
100
AcDbEntity
  8
Logo-AM_3
100
AcDbLine
 10
-107.7351537424825
 20
12.19591990443308
 30
0.0
 11
-107.8429623356119
 21
12.20812665211628
 31
0.0
  0
LINE
  5
464
330
36A
100
AcDbEntity
  8
Logo-AM_3
100
AcDbLine
 10
-107.6437184071988
 20
12.17840553854484
 30
0.0
 11
-107.7351537424825
 21
12.19591990443308
 31
0.0
  0
LINE
  5
465
330
36A
100
AcDbEntity
  8
Logo-AM_3
100
AcDbLine
 10
-107.4920894572833
 20
12.17155175441934
 30
0.0
 11
-107.6437184071988
 21
12.17840553854484
 31
0.0
  0
LINE
  5
466
330
36A
100
AcDbEntity
  8
Logo-AM_3
100
AcDbLine
 10
-107.361404353524
 20
12.1769644411242
 30
0.0
 11
-107.4920894572833
 21
12.17155175441934
 31
0.0
  0
LINE
  5
467
330
36A
100
AcDbEntity
  8
Logo-AM_3
100
AcDbLine
 10
-107.2760643446581
 20
12.19600174726446
 30
0.0
 11
-107.361404353524
 21
12.1769644411242
 31
0.0
  0
LINE
  5
468
330
36A
100
AcDbEntity
  8
Logo-AM_3
100
AcDbLine
 10
-107.1747245571974
 20
12.23483838266287
 30
0.0
 11
-107.2760643446581
 21
12.19600174726446
 31
0.0
  0
LINE
  5
469
330
36A
100
AcDbEntity
  8
Logo-AM_3
100
AcDbLine
 10
-107.0919456495747
 20
12.27262986795276
 30
0.0
 11
-107.1747245571974
 21
12.23483838266287
 31
0.0
  0
LINE
  5
46A
330
36A
100
AcDbEntity
  8
Logo-AM_3
100
AcDbLine
 10
-107.0109031414399
 20
12.31936654356963
 30
0.0
 11
-107.0919456495747
 21
12.27262986795276
 31
0.0
  0
LINE
  5
46B
330
36A
100
AcDbEntity
  8
Logo-AM_3
100
AcDbLine
 10
-106.9421575771612
 20
12.35901165342301
 30
0.0
 11
-107.0109031414399
 21
12.31936654356963
 31
0.0
  0
LINE
  5
46C
330
36A
100
AcDbEntity
  8
Logo-AM_3
100
AcDbLine
 10
-106.8645772342884
 20
12.41734126045475
 30
0.0
 11
-106.9421575771612
 21
12.35901165342301
 31
0.0
  0
LINE
  5
46D
330
36A
100
AcDbEntity
  8
Logo-AM_3
100
AcDbLine
 10
-105.6526134955398
 20
12.41734126045475
 30
0.0
 11
-106.8645772342884
 21
12.41734126045475
 31
0.0
  0
LINE
  5
46E
330
36A
100
AcDbEntity
  8
Logo-AM_3
100
AcDbLine
 10
-105.661700281978
 20
12.39625677754901
 30
0.0
 11
-105.6526134955398
 21
12.41734126045475
 31
0.0
  0
LINE
  5
46F
330
36A
100
AcDbEntity
  8
Logo-AM_3
100
AcDbLine
 10
-105.7070000517197
 20
12.33337604550883
 30
0.0
 11
-105.661700281978
 21
12.39625677754901
 31
0.0
  0
LINE
  5
470
330
36A
100
AcDbEntity
  8
Logo-AM_3
100
AcDbLine
 10
-105.7657233184268
 20
12.26965808342487
 30
0.0
 11
-105.7070000517197
 21
12.33337604550883
 31
0.0
  0
LINE
  5
471
330
36A
100
AcDbEntity
  8
Logo-AM_3
100
AcDbLine
 10
-105.831995942422
 20
12.20845512942554
 30
0.0
 11
-105.7657233184268
 21
12.26965808342487
 31
0.0
  0
LINE
  5
472
330
36A
100
AcDbEntity
  8
Logo-AM_3
100
AcDbLine
 10
-105.8913513004641
 20
12.14359404843029
 30
0.0
 11
-105.831995942422
 21
12.20845512942554
 31
0.0
  0
LINE
  5
473
330
36A
100
AcDbEntity
  8
Logo-AM_3
100
AcDbLine
 10
-105.9569918331245
 20
12.08353310735805
 30
0.0
 11
-105.8913513004641
 21
12.14359404843029
 31
0.0
  0
LINE
  5
474
330
36A
100
AcDbEntity
  8
Logo-AM_3
100
AcDbLine
 10
-106.0196998273907
 20
12.02615543237985
 30
0.0
 11
-105.9569918331245
 21
12.08353310735805
 31
0.0
  0
LINE
  5
475
330
36A
100
AcDbEntity
  8
Logo-AM_3
100
AcDbLine
 10
-106.0782021671457
 20
11.97993556676891
 30
0.0
 11
-106.0196998273907
 21
12.02615543237985
 31
0.0
  0
LINE
  5
476
330
36A
100
AcDbEntity
  8
Logo-AM_3
100
AcDbLine
 10
-106.1370309843381
 20
11.93345776714466
 30
0.0
 11
-106.0782021671457
 21
11.97993556676891
 31
0.0
  0
LINE
  5
477
330
36A
100
AcDbEntity
  8
Logo-AM_3
100
AcDbLine
 10
-106.1998439966128
 20
11.8927419839253
 30
0.0
 11
-106.1370309843381
 21
11.93345776714466
 31
0.0
  0
LINE
  5
478
330
36A
100
AcDbEntity
  8
Logo-AM_3
100
AcDbLine
 10
-106.2647730876542
 20
11.85065454535584
 30
0.0
 11
-106.1998439966128
 21
11.8927419839253
 31
0.0
  0
LINE
  5
479
330
36A
100
AcDbEntity
  8
Logo-AM_3
100
AcDbLine
 10
-106.3479911979638
 20
11.80907001375985
 30
0.0
 11
-106.2647730876542
 21
11.85065454535584
 31
0.0
  0
LINE
  5
47A
330
36A
100
AcDbEntity
  8
Logo-AM_3
100
AcDbLine
 10
-106.4305399543814
 20
11.76781996185781
 30
0.0
 11
-106.3479911979638
 21
11.80907001375985
 31
0.0
  0
LINE
  5
47B
330
36A
100
AcDbEntity
  8
Logo-AM_3
100
AcDbLine
 10
-106.5093966535301
 20
11.72841485057728
 30
0.0
 11
-106.4305399543814
 21
11.76781996185781
 31
0.0
  0
LINE
  5
47C
330
36A
100
AcDbEntity
  8
Logo-AM_3
100
AcDbLine
 10
-106.577332659992
 20
11.70016601004118
 30
0.0
 11
-106.5093966535301
 21
11.72841485057728
 31
0.0
  0
LINE
  5
47D
330
36A
100
AcDbEntity
  8
Logo-AM_3
100
AcDbLine
 10
-106.6620148610772
 20
11.66998399580814
 30
0.0
 11
-106.577332659992
 21
11.70016601004118
 31
0.0
  0
LINE
  5
47E
330
36A
100
AcDbEntity
  8
Logo-AM_3
100
AcDbLine
 10
-106.7288958952824
 20
11.64614658605219
 30
0.0
 11
-106.6620148610772
 21
11.66998399580814
 31
0.0
  0
LINE
  5
47F
330
36A
100
AcDbEntity
  8
Logo-AM_3
100
AcDbLine
 10
-106.7860731693001
 20
11.62576774284673
 30
0.0
 11
-106.7288958952824
 21
11.64614658605219
 31
0.0
  0
LINE
  5
480
330
36A
100
AcDbEntity
  8
Logo-AM_3
100
AcDbLine
 10
-106.8479682856528
 20
11.60370738944578
 30
0.0
 11
-106.7860731693001
 21
11.62576774284673
 31
0.0
  0
LINE
  5
481
330
36A
100
AcDbEntity
  8
Logo-AM_3
100
AcDbLine
 10
-106.9299995739906
 20
11.57447020051543
 30
0.0
 11
-106.8479682856528
 21
11.60370738944578
 31
0.0
  0
LINE
  5
482
330
36A
100
AcDbEntity
  8
Logo-AM_3
100
AcDbLine
 10
-107.0115123114806
 20
11.55616002243954
 30
0.0
 11
-106.9299995739906
 21
11.57447020051543
 31
0.0
  0
LINE
  5
483
330
36A
100
AcDbEntity
  8
Logo-AM_3
100
AcDbLine
 10
-107.1175908257144
 20
11.53233164241629
 30
0.0
 11
-107.0115123114806
 21
11.55616002243954
 31
0.0
  0
LINE
  5
484
330
36A
100
AcDbEntity
  8
Logo-AM_3
100
AcDbLine
 10
-107.2434483654033
 20
11.51604044536196
 30
0.0
 11
-107.1175908257144
 21
11.53233164241629
 31
0.0
  0
LINE
  5
485
330
36A
100
AcDbEntity
  8
Logo-AM_3
100
AcDbLine
 10
-107.409127950024
 20
11.49459462044274
 30
0.0
 11
-107.2434483654033
 21
11.51604044536196
 31
0.0
  0
LINE
  5
486
330
36A
100
AcDbEntity
  8
Logo-AM_3
100
AcDbLine
 10
-107.6305541701022
 20
11.48314847507134
 30
0.0
 11
-107.409127950024
 21
11.49459462044274
 31
0.0
  0
LINE
  5
487
330
36A
100
AcDbEntity
  8
Logo-AM_3
100
AcDbLine
 10
-107.8197957440102
 20
11.47336604476794
 30
0.0
 11
-107.6305541701022
 21
11.48314847507134
 31
0.0
  0
LINE
  5
488
330
36A
100
AcDbEntity
  8
Logo-AM_3
100
AcDbLine
 10
-108.0166628214611
 20
11.48390607425261
 30
0.0
 11
-107.8197957440102
 21
11.47336604476794
 31
0.0
  0
LINE
  5
489
330
36A
100
AcDbEntity
  8
Logo-AM_3
100
AcDbLine
 10
-108.1777030859021
 20
11.5008453283537
 30
0.0
 11
-108.0166628214611
 21
11.48390607425261
 31
0.0
  0
LINE
  5
48A
330
36A
100
AcDbEntity
  8
Logo-AM_3
100
AcDbLine
 10
-108.3212967929021
 20
11.52172520418156
 30
0.0
 11
-108.1777030859021
 21
11.5008453283537
 31
0.0
  0
LINE
  5
48B
330
36A
100
AcDbEntity
  8
Logo-AM_3
100
AcDbLine
 10
-108.4218215731832
 20
11.54278683302999
 30
0.0
 11
-108.3212967929021
 21
11.52172520418156
 31
0.0
  0
LINE
  5
48C
330
36A
100
AcDbEntity
  8
Logo-AM_3
100
AcDbLine
 10
-108.5089066613441
 20
11.56391186574041
 30
0.0
 11
-108.4218215731832
 21
11.54278683302999
 31
0.0
  0
LINE
  5
48D
330
36A
100
AcDbEntity
  8
Logo-AM_3
100
AcDbLine
 10
-108.5961389742209
 20
11.58507261210749
 30
0.0
 11
-108.5089066613441
 21
11.56391186574041
 31
0.0
  0
LINE
  5
48E
330
36A
100
AcDbEntity
  8
Logo-AM_3
100
AcDbLine
 10
-108.6567083554396
 20
11.60789132769759
 30
0.0
 11
-108.5961389742209
 21
11.58507261210749
 31
0.0
  0
LINE
  5
48F
330
36A
100
AcDbEntity
  8
Logo-AM_3
100
AcDbLine
 10
-108.7562460148634
 20
11.64539082819095
 30
0.0
 11
-108.6567083554396
 21
11.60789132769759
 31
0.0
  0
LINE
  5
490
330
36A
100
AcDbEntity
  8
Logo-AM_3
100
AcDbLine
 10
-108.8448403696307
 20
11.6865367586119
 30
0.0
 11
-108.7562460148634
 21
11.64539082819095
 31
0.0
  0
LINE
  5
491
330
36A
100
AcDbEntity
  8
Logo-AM_3
100
AcDbLine
 10
-108.9266488869216
 20
11.7330423437323
 30
0.0
 11
-108.8448403696307
 21
11.6865367586119
 31
0.0
  0
LINE
  5
492
330
36A
100
AcDbEntity
  8
Logo-AM_3
100
AcDbLine
 10
-109.0097495890314
 20
11.79153889914272
 30
0.0
 11
-108.9266488869216
 21
11.7330423437323
 31
0.0
  0
LINE
  5
493
330
36A
100
AcDbEntity
  8
Logo-AM_3
100
AcDbLine
 10
-109.069680317783
 20
11.83372556070156
 30
0.0
 11
-109.0097495890314
 21
11.79153889914272
 31
0.0
  0
LINE
  5
494
330
36A
100
AcDbEntity
  8
Logo-AM_3
100
AcDbLine
 10
-109.138471207214
 20
11.89570491561352
 30
0.0
 11
-109.069680317783
 21
11.83372556070156
 31
0.0
  0
LINE
  5
495
330
36A
100
AcDbEntity
  8
Logo-AM_3
100
AcDbLine
 10
-109.1968373117243
 20
11.96028775734697
 30
0.0
 11
-109.138471207214
 21
11.89570491561352
 31
0.0
  0
LINE
  5
496
330
36A
100
AcDbEntity
  8
Logo-AM_3
100
AcDbLine
 10
-109.243391681669
 20
12.02100407829556
 30
0.0
 11
-109.1968373117243
 21
11.96028775734697
 31
0.0
  0
LINE
  5
497
330
36A
100
AcDbEntity
  8
Logo-AM_3
100
AcDbLine
 10
-109.2856039020685
 20
12.0829823272233
 30
0.0
 11
-109.243391681669
 21
12.02100407829556
 31
0.0
  0
LINE
  5
498
330
36A
100
AcDbEntity
  8
Logo-AM_3
100
AcDbLine
 10
-109.324394980008
 20
12.16433410149005
 30
0.0
 11
-109.2856039020685
 21
12.0829823272233
 31
0.0
  0
LWPOLYLINE
  5
499
330
36A
100
AcDbEntity
  8
Logo-AM_3
100
AcDbPolyline
 90
       27
 70
     1
 43
0.0
 10
-106.336038448811
 20
13.4229522267824
 10
-107.8600190967472
 20
13.42273434789376
 10
-107.7812149941131
 20
13.5336619949839
 10
-107.7167441017987
 20
13.60880402475027
 10
-107.6333512614556
 20
13.68439472728733
 10
-107.5486059185819
 20
13.74500819170475
 10
-107.4435549076893
 20
13.80953241627503
 10
-107.3582022077812
 20
13.84890324204502
 10
-107.234547941573
 20
13.89155441697062
 10
-107.1491952416645
 20
13.91342746661553
 10
-107.0752367254096
 20
13.93238056709674
 10
-106.981211163964
 20
13.94281567894086
 10
-106.9035492358175
 20
13.94582395598172
 10
-106.824837577155
 20
13.94221402353287
 10
-106.7567517937106
 20
13.93079263313228
 10
-106.6754186816424
 20
13.90862528319235
 10
-106.6251313321932
 20
13.88632974758093
 10
-106.5664751467111
 20
13.85485896699515
 10
-106.522636659864
 20
13.82709102153171
 10
-106.4800346431589
 20
13.79006709424698
 10
-106.441134784855
 20
13.74872319265296
 10
-106.3985327681498
 20
13.69010160579091
 10
-106.3668976251806
 20
13.63670026438171
 10
-106.3391133071109
 20
13.56758841732426
 10
-106.3205898240622
 20
13.49909370945397
 10
-106.3144147253775
 20
13.43430073072159
 10
-106.3138617429421
 20
13.42295547959748
  0
LWPOLYLINE
  5
49A
330
36A
100
AcDbEntity
  8
Logo-AM_3
100
AcDbPolyline
 90
        5
 70
     0
 43
0.0
 10
-104.5839375197116
 20
12.61051027865596
 10
-104.9609985771045
 20
11.53760347942474
 10
-103.794368013939
 20
11.53953174897356
 10
-103.4179846252454
 20
12.61051027865596
 10
-104.5839375197116
 20
12.61051027865596
  0
LWPOLYLINE
  5
49B
330
36A
100
AcDbEntity
  8
Logo-AM_3
100
AcDbPolyline
 90
       13
 70
     0
 43
0.0
 10
-104.4257772349639
 20
13.06054679541375
 10
-104.2473030543062
 20
13.56838540181598
 10
-104.6993132718198
 20
13.56838540181598
 10
-104.4206675159576
 20
14.35373571891267
 10
-103.9713004963948
 20
14.35373571891267
 10
-103.671023367315
 20
15.20815801240252
 10
-102.5044440983
 20
15.20994032722669
 10
-102.8053476019286
 20
14.35373571891267
 10
-102.0339135588379
 20
14.35373571891267
 10
-102.3063892293712
 20
13.56838540181598
 10
-103.08135015984
 20
13.56838540181598
 10
-103.2598243404977
 20
13.06054679541375
 10
-104.4257772349639
 20
13.06054679541375
  0
LWPOLYLINE
  5
49C
330
36A
100
AcDbEntity
  8
Logo-AM_3
100
AcDbPolyline
 90
        5
 70
     0
 43
0.0
 10
-93.97400588202213
 20
12.61051027865596
 10
-92.80805298755586
 20
12.61051027865596
 10
-93.18617334373598
 20
11.53458930214762
 10
-94.35039067712819
 20
11.53458930214762
 10
-93.97400588202213
 20
12.61051027865596
  0
LWPOLYLINE
  5
49D
330
36A
100
AcDbEntity
  8
Logo-AM_3
100
AcDbPolyline
 90
       52
 70
     0
 43
0.0
 10
-98.98756113183123
 20
12.61051027865596
 10
-97.59596901403488
 20
12.61051027865596
 10
-97.53333502488979
 20
12.5053666999209
 10
-97.43125951380994
 20
12.41922820221936
 10
-97.32464690515284
 20
12.36028991846007
 10
-97.1772059289456
 20
12.30815303425157
 10
-97.01842220879463
 20
12.28775206615575
 10
-96.81654157230518
 20
12.30815303425157
 10
-96.6940509590095
 20
12.33762217613122
 10
-96.57307393616068
 20
12.3829727367218
 10
-96.41655876479857
 20
12.46004413749193
 10
-96.3084839983799
 20
12.52223774595705
 10
-96.22629824137545
 20
12.58383585506345
 10
-96.19070854994802
 20
12.61051027865596
 10
-94.81516905077299
 20
12.61051027865596
 10
-94.87423948959444
 20
12.52356227436877
 10
-94.96541494519899
 20
12.4131978289634
 10
-95.06301030203173
 20
12.31181756285701
 10
-95.14172374291979
 20
12.23005148460939
 10
-95.26631084800603
 20
12.12509243924393
 10
-95.37803366130267
 20
12.04296090920076
 10
-95.50131229680941
 20
11.95826323996658
 10
-95.64257032951678
 20
11.87356557073241
 10
-95.83698955290541
 20
11.77302309576777
 10
-95.98723728421331
 20
11.70629055457499
 10
-96.13619919839408
 20
11.64982580070278
 10
-96.25450487273809
 20
11.60498144689424
 10
-96.38018850891604
 20
11.56641066263802
 10
-96.56446814581663
 20
11.52000694043232
 10
-96.70444036139684
 20
11.48920788587912
 10
-96.8328567547674
 20
11.46867554179454
 10
-96.95485141002841
 20
11.45199186807014
 10
-97.10766526494586
 20
11.44172623445394
 10
-97.37425005615527
 20
11.44172623445394
 10
-97.5784323053022
 20
11.45191110414254
 10
-97.73766606144732
 20
11.46859477786694
 10
-97.9334445772279
 20
11.50213119113738
 10
-98.08754424927204
 20
11.54191334813737
 10
-98.21981258337931
 20
11.58554525234996
 10
-98.32254569807544
 20
11.62789462539336
 10
-98.44454035333686
 20
11.68949381135195
 10
-98.55112540876966
 20
11.75365805964912
 10
-98.61734329528623
 20
11.7935212552436
 10
-98.6928610306959
 20
11.8568151321611
 10
-98.75450126688978
 20
11.92354767335411
 10
-98.81999344382078
 20
12.00824534258828
 10
-98.8816318431332
 20
12.10577693833426
 10
-98.9252320650335
 20
12.19354148311009
 10
-98.967608923781
 20
12.30262232049387
 10
-98.9907224050826
 20
12.42710322358044
 10
-98.9907224050826
 20
12.54516716341101
 10
-98.98756113183123
 20
12.61051027865596
  0
LWPOLYLINE
  5
49E
330
36A
100
AcDbEntity
  8
Logo-AM_3
100
AcDbPolyline
 90
       46
 70
     0
 43
0.0
 10
-98.8656877107565
 20
13.06054679541375
 10
-98.77038661905501
 20
13.25317175036167
 10
-98.63564951606399
 20
13.44693087363708
 10
-98.47791098154951
 20
13.6308378746051
 10
-98.30959017207858
 20
13.78313925859726
 10
-98.1255603510772
 20
13.92106897089735
 10
-97.918527261671
 20
14.04914763774246
 10
-97.6753443421758
 20
14.17065750514808
 10
-97.46502507156904
 20
14.2494755604576
 10
-97.2431801511955
 20
14.33261290281189
 10
-97.00823853714794
 20
14.38083755017015
 10
-96.75701839208038
 20
14.43240356564294
 10
-96.52844689744007
 20
14.45308680604017
 10
-96.3056187698317
 20
14.47325033403322
 10
-95.96650072771538
 20
14.45308680604017
 10
-95.62302407230257
 20
14.39737261826786
 10
-95.37984298968879
 20
14.33497548470524
 10
-95.17938226268372
 20
14.24959078366082
 10
-94.96249062967583
 20
14.12151211681572
 10
-94.84089825148705
 20
14.01313769458471
 10
-94.73905284679181
 20
13.92236360943937
 10
-94.67001499217031
 20
13.79967432669497
 10
-94.60757571247544
 20
13.64203929292836
 10
-94.58128626287001
 20
13.49425745832133
 10
-94.58128626287001
 20
13.32677030224755
 10
-94.59001696116372
 20
13.19461144178314
 10
-94.61978362765696
 20
13.06054679541375
 10
-95.90996702239776
 20
13.06054679541375
 10
-95.90996702239776
 20
13.13480952242531
 10
-95.92484943720371
 20
13.24078364072972
 10
-95.96391807217155
 20
13.3337418444724
 10
-96.02531216622995
 20
13.41740573543421
 10
-96.10903171937893
 20
13.49177315991034
 10
-96.22809838535344
 20
13.56613950753382
 10
-96.37507095675033
 20
13.60890131503385
 10
-96.50343959119849
 20
13.62377479992898
 10
-96.70808473451144
 20
13.60890131503385
 10
-96.83540267267929
 20
13.58663846919518
 10
-96.97865555881529
 20
13.54201801450955
 10
-97.11632616173808
 20
13.48066542774296
 10
-97.25957721099259
 20
13.39700153678137
 10
-97.36376146216073
 20
13.31333872267197
 10
-97.4605026690447
 20
13.21108405244359
 10
-97.52189676310313
 20
13.12370179025794
 10
-97.56626896859124
 20
13.06054679541378
 10
-98.8656877107565
 20
13.06054679541375
  0
LWPOLYLINE
  5
49F
330
36A
100
AcDbEntity
  8
Logo-AM_3
100
AcDbPolyline
 90
        7
 70
     0
 43
0.0
 10
-91.86185927458728
 20
12.61051027865596
 10
-90.69590638012099
 20
12.61051027865596
 10
-90.79861363719697
 20
12.3182623461617
 10
-87.78723061996927
 20
12.3182623461617
 10
-88.05200057214781
 20
11.53952774710339
 10
-92.23824406969335
 20
11.53952774710339
 10
-91.86185927458728
 20
12.61051027865596
  0
LINE
  5
4A0
330
36A
100
AcDbEntity
  8
Logo-AM_3
100
AcDbLine
 10
-90.61659463826677
 20
12.83618754080174
 30
0.0
 11
-87.59991278088548
 21
12.83618754080174
 31
0.0
  0
HATCH
  5
4A1
330
36A
100
AcDbEntity
  8
Logo-AM_8
100
AcDbHatch
 10
0.0
 20
0.0
 30
0.0
210
0.0
220
0.0
230
1.0
  2
_U
 70
     0
 71
     0
 91
        1
 92
        1
 93
       48
 72
     1
 10
-115.8990162212926
 20
13.27372747139583
 11
-115.8694779591306
 21
13.21828136179334
 72
     1
 10
-115.8694779591306
 20
13.21828136179334
 11
-115.8473955231607
 21
13.11641903769902
 72
     1
 10
-115.8473955231607
 20
13.11641903769902
 11
-115.8450094139489
 21
13.06054679541375
 72
     1
 10
-115.8450094139489
 20
13.06054679541375
 11
-114.6631998078267
 21
13.06054679541375
 72
     1
 10
-114.6631998078267
 20
13.06054679541375
 11
-114.2047413765872
 21
14.36372027717942
 72
     1
 10
-114.2047413765872
 20
14.36372027717942
 11
-115.3407514215023
 21
14.36399748283813
 72
     1
 10
-115.3407514215023
 20
14.36399748283813
 11
-115.4189589459055
 21
14.11917737602189
 72
     2
 10
-115.466587765945
 20
14.13439235225065
 40
0.050000000000013
 50
17.71602659967672
 51
114.5846421554991
 73
     0
 72
     1
 10
-115.487389619003
 20
14.08892496933326
 11
-115.5250236955756
 21
14.10614299422499
 72
     1
 10
-115.5250236955756
 20
14.10614299422499
 11
-115.5971863893173
 21
14.15628930765564
 72
     1
 10
-115.5971863893173
 20
14.15628930765564
 11
-115.6407033684967
 21
14.19770902165822
 72
     1
 10
-115.6407033684967
 20
14.19770902165822
 11
-115.7353131803666
 21
14.25679405554675
 72
     1
 10
-115.7353131803666
 20
14.25679405554675
 11
-115.8171660535145
 21
14.29924964091506
 72
     1
 10
-115.8171660535145
 20
14.29924964091506
 11
-116.0045191552113
 21
14.37743437894446
 72
     1
 10
-116.0045191552113
 20
14.37743437894446
 11
-116.2282085180223
 21
14.43689115186424
 72
     1
 10
-116.2282085180223
 20
14.43689115186424
 11
-116.3338923148444
 21
14.4498366812233
 72
     1
 10
-116.3338923148444
 20
14.4498366812233
 11
-116.730112276245
 21
14.4498366812233
 72
     1
 10
-116.730112276245
 20
14.4498366812233
 11
-116.9425839928204
 21
14.41924222535425
 72
     1
 10
-116.9425839928204
 20
14.41924222535425
 11
-117.0472336408975
 21
14.39853236835296
 72
     1
 10
-117.0472336408975
 20
14.39853236835296
 11
-117.1885624766537
 21
14.36139366719334
 72
     1
 10
-117.1885624766537
 20
14.36139366719334
 11
-117.3426401205322
 21
14.31688422334701
 72
     1
 10
-117.3426401205322
 20
14.31688422334701
 11
-117.5704230723918
 21
14.23253969755188
 72
     1
 10
-117.5704230723918
 20
14.23253969755188
 11
-117.8778970737462
 21
14.06908742245963
 72
     1
 10
-117.8778970737462
 20
14.06908742245963
 11
-118.0376565084316
 21
13.96998443549586
 72
     1
 10
-118.0376565084316
 20
13.96998443549586
 11
-118.1937426467757
 21
13.85253100621293
 72
     1
 10
-118.1937426467757
 20
13.85253100621293
 11
-118.3685944482422
 21
13.69015785419555
 72
     1
 10
-118.3685944482422
 20
13.69015785419555
 11
-118.4879558963626
 21
13.56352794203411
 72
     1
 10
-118.4879558963626
 20
13.56352794203411
 11
-118.6064200484939
 21
13.41063864314967
 72
     1
 10
-118.6064200484939
 20
13.41063864314967
 11
-118.7944238085747
 21
13.11314091359776
 72
     1
 10
-118.7944238085747
 20
13.11314091359776
 11
-118.8166453501684
 21
13.06054679541375
 72
     1
 10
-118.8166453501684
 20
13.06054679541375
 11
-117.503267037935
 21
13.06054679541375
 72
     1
 10
-117.503267037935
 20
13.06054679541375
 11
-117.4672676316641
 21
13.12575684269217
 72
     1
 10
-117.4672676316641
 20
13.12575684269217
 11
-117.4051778811183
 21
13.2046447378257
 72
     1
 10
-117.4051778811183
 20
13.2046447378257
 11
-117.2739335238311
 21
13.33307999870175
 72
     1
 10
-117.2739335238311
 20
13.33307999870175
 11
-117.1860681098815
 21
13.39412827645282
 72
     1
 10
-117.1860681098815
 20
13.39412827645282
 11
-117.0745827386013
 21
13.45618466774993
 72
     1
 10
-117.0745827386013
 20
13.45618466774993
 11
-116.9362860269648
 21
13.52106100119403
 72
     1
 10
-116.9362860269648
 20
13.52106100119403
 11
-116.8120992408012
 21
13.56196214865412
 72
     1
 10
-116.8120992408012
 20
13.56196214865412
 11
-116.6952797302956
 21
13.58529133446831
 72
     1
 10
-116.6952797302956
 20
13.58529133446831
 11
-116.6080451470802
 21
13.60598983599783
 72
     1
 10
-116.6080451470802
 20
13.60598983599783
 11
-116.4963322630765
 21
13.61100769278431
 72
     1
 10
-116.4963322630765
 20
13.61100769278431
 11
-116.3974476464604
 21
13.60540361544577
 72
     1
 10
-116.3974476464604
 20
13.60540361544577
 11
-116.2356047498447
 21
13.56128839066463
 72
     1
 10
-116.2356047498447
 20
13.56128839066463
 11
-116.1552720753521
 21
13.52679172926144
 72
     1
 10
-116.1552720753521
 20
13.52679172926144
 11
-116.0718038618647
 21
13.47912272064894
 72
     1
 10
-116.0718038618647
 20
13.47912272064894
 11
-116.0057052106949
 21
13.42049694353403
 72
     1
 10
-116.0057052106949
 20
13.42049694353403
 11
-115.9448290106857
 21
13.35275776949442
 72
     1
 10
-115.9448290106857
 20
13.35275776949442
 11
-115.8990162212926
 21
13.27372747139583
 97
        0
 75
     0
 76
     0
 52
45.0
 41
0.2
 77
     0
 78
     1
 53
45.0
 43
0.0
 44
0.0
 45
-0.1414213562373095
 46
0.1414213562373095
 79
     0
 98
        1
 10
0.0
 20
0.0
1001
GENIUS_GENODEF_13
1002
{
1000
HIER
1070
     0
1002
}
1002
{
1000
MANEDIT
1070
     0
1002
}
1002
{
1000
NOSEL
1070
     0
1002
}
1002
{
1000
BEHIND
1070
     0
1002
}
1002
{
1000
OTHER
1070
     0
1002
}
1002
{
1000
REACTOR
1002
}
1001
GENIUS_GENOBJ-N-HTC_13
1002
{
1000
OWNER
1000
GEN
1002
}
1001
GENIUS_GENHATCH_13
1002
{
1000
DATA
1040
45.0
1042
0.2
1000
_U
1070
     0
1011
-115.7049188734413
1021
13.63240786702596
1031
0.0
1002
}
1002
{
1000
UCS
1010
0.0
1020
0.0
1030
0.0
1010
1.0
1020
0.0
1030
0.0
1010
0.0
1020
1.0
1030
0.0
1002
}
  0
HATCH
  5
4A2
330
36A
100
AcDbEntity
  8
Logo-AM_8
100
AcDbHatch
 10
0.0
 20
0.0
 30
0.0
210
0.0
220
0.0
230
1.0
  2
_U
 70
     0
 71
     0
 91
        1
 92
        1
 93
       50
 72
     1
 10
-116.206954192397
 20
12.4648077008224
 11
-116.3308803486726
 21
12.40021027628859
 72
     1
 10
-116.3308803486726
 20
12.40021027628859
 11
-116.4944522425085
 21
12.3405307516031
 72
     1
 10
-116.4944522425085
 20
12.3405307516031
 11
-116.5776246894543
 21
12.31892885921129
 72
     1
 10
-116.5776246894543
 20
12.31892885921129
 11
-116.7057391725502
 21
12.29897477193972
 72
     1
 10
-116.7057391725502
 20
12.29897477193972
 11
-116.9794596687611
 21
12.29901289119897
 72
     1
 10
-116.9794596687611
 20
12.29901289119897
 11
-117.1441768125287
 21
12.31730403272121
 72
     1
 10
-117.1441768125287
 20
12.31730403272121
 11
-117.2447622560394
 21
12.34769379851462
 72
     1
 10
-117.2447622560394
 20
12.34769379851462
 11
-117.371211759656
 21
12.4075547986103
 72
     1
 10
-117.371211759656
 20
12.4075547986103
 11
-117.4593936231217
 21
12.47739347320129
 72
     1
 10
-117.4593936231217
 20
12.47739347320129
 11
-117.5192915184184
 21
12.55554687653824
 72
     1
 10
-117.5192915184184
 20
12.55554687653824
 11
-117.5445897494761
 21
12.61051027865596
 72
     1
 10
-117.5445897494761
 20
12.61051027865596
 11
-118.9338182433912
 21
12.61051027865596
 72
     1
 10
-118.9338182433912
 20
12.61051027865596
 11
-118.9404125185752
 21
12.53142911629828
 72
     1
 10
-118.9404125185752
 20
12.53142911629828
 11
-118.9331734773618
 21
12.42133529441679
 72
     1
 10
-118.9331734773618
 20
12.42133529441679
 11
-118.9210036149334
 21
12.33875830398045
 72
     1
 10
-118.9210036149334
 20
12.33875830398045
 11
-118.9081925802834
 21
12.27602563125578
 72
     1
 10
-118.9081925802834
 20
12.27602563125578
 11
-118.8902583727518
 21
12.21073293051489
 72
     1
 10
-118.8902583727518
 20
12.21073293051489
 11
-118.8684378342373
 21
12.14824881644921
 72
     1
 10
-118.8684378342373
 20
12.14824881644921
 11
-118.8496810546195
 21
12.10322292552641
 72
     1
 10
-118.8496810546195
 20
12.10322292552641
 11
-118.8079925802659
 21
12.02229911260127
 72
     1
 10
-118.8079925802659
 20
12.02229911260127
 11
-118.725448155597
 21
11.89629613309438
 72
     1
 10
-118.725448155597
 20
11.89629613309438
 11
-118.6860365701994
 21
11.85180819685058
 72
     1
 10
-118.6860365701994
 20
11.85180819685058
 11
-118.6005498750969
 21
11.77147047921897
 72
     1
 10
-118.6005498750969
 20
11.77147047921897
 11
-118.5582759427089
 21
11.73178310551515
 72
     1
 10
-118.5582759427089
 20
11.73178310551515
 11
-118.496146354421
 21
11.68569376919248
 72
     1
 10
-118.496146354421
 20
11.68569376919248
 11
-118.4355684587332
 21
11.64606736885906
 72
     1
 10
-118.4355684587332
 20
11.64606736885906
 11
-118.3035052951684
 21
11.58399495916947
 72
     1
 10
-118.3035052951684
 20
11.58399495916947
 11
-118.1217100501085
 21
11.52031015544725
 72
     1
 10
-118.1217100501085
 20
11.52031015544725
 11
-118.0544883134015
 21
11.50361256512445
 72
     1
 10
-118.0544883134015
 20
11.50361256512445
 11
-117.9579195036158
 21
11.47747353091626
 72
     1
 10
-117.9579195036158
 20
11.47747353091626
 11
-117.8150787423947
 21
11.45937795585149
 72
     1
 10
-117.8150787423947
 20
11.45937795585149
 11
-117.5522233036746
 21
11.44387040782456
 72
     1
 10
-117.5522233036746
 20
11.44387040782456
 11
-117.1563549481471
 21
11.48551699005992
 72
     1
 10
-117.1563549481471
 20
11.48551699005992
 11
-116.9954083107027
 21
11.52572923890164
 72
     1
 10
-116.9954083107027
 20
11.52572923890164
 11
-116.8304367663436
 21
11.58202840603047
 72
     1
 10
-116.8304367663436
 20
11.58202840603047
 11
-116.6433344388465
 21
11.66245416543296
 72
     1
 10
-116.6433344388465
 20
11.66245416543296
 11
-116.5258716878216
 21
11.71858236144845
 72
     1
 10
-116.5258716878216
 20
11.71858236144845
 11
-116.3935648798741
 21
11.78606584894618
 72
     2
 10
-116.3705283633766
 20
11.70630769434508
 40
0.0830183372377135
 50
253.8897167516267
 51
388.7202265648367
 73
     0
 72
     1
 10
-116.2977232258687
 20
11.66641463391883
 11
-116.3433288893811
 21
11.53787167617884
 72
     1
 10
-116.3433288893811
 20
11.53787167617884
 11
-115.2036506790122
 21
11.53766463990149
 72
     1
 10
-115.2036506790122
 20
11.53766463990149
 11
-115.1235030826232
 21
11.72596143618884
 72
     1
 10
-115.1235030826232
 20
11.72596143618884
 11
-114.9015905039033
 21
12.38227138803339
 72
     1
 10
-114.9015905039033
 20
12.38227138803339
 11
-114.8350798560887
 21
12.5626894682577
 72
     1
 10
-114.8350798560887
 20
12.5626894682577
 11
-114.8146864428418
 21
12.61051027865596
 72
     1
 10
-114.8146864428418
 20
12.61051027865596
 11
-116.0440520683506
 21
12.61051027865596
 72
     1
 10
-116.0440520683506
 20
12.61051027865596
 11
-116.0866812642853
 21
12.55503220794668
 72
     1
 10
-116.0866812642853
 20
12.55503220794668
 11
-116.12488049918
 21
12.52082333348954
 72
     1
 10
-116.12488049918
 20
12.52082333348954
 11
-116.1624472155083
 21
12.48946721749084
 72
     1
 10
-116.1624472155083
 20
12.48946721749084
 11
-116.206954192397
 21
12.4648077008224
 97
        0
 75
     0
 76
     0
 52
45.0
 41
0.2
 77
     0
 78
     1
 53
45.0
 43
0.0
 44
0.0
 45
-0.1414213562373095
 46
0.1414213562373095
 79
     0
 98
        1
 10
0.0
 20
0.0
1001
GENIUS_GENOBJ-N-HTC_13
1002
{
1000
OWNER
1000
GEN
1002
}
1001
GENIUS_GENODEF_13
1002
{
1000
HIER
1070
     0
1002
}
1002
{
1000
MANEDIT
1070
     0
1002
}
1002
{
1000
NOSEL
1070
     0
1002
}
1002
{
1000
BEHIND
1070
     0
1002
}
1002
{
1000
OTHER
1070
     0
1002
}
1002
{
1000
REACTOR
1002
}
1001
GENIUS_GENHATCH_13
1002
{
1000
DATA
1040
45.0
1042
0.2
1000
_U
1070
     0
1011
-115.9240003977772
1021
12.14986560655137
1031
0.0
1002
}
1002
{
1000
UCS
1010
0.0
1020
0.0
1030
0.0
1010
1.0
1020
0.0
1030
0.0
1010
0.0
1020
1.0
1030
0.0
1002
}
  0
HATCH
  5
4A3
330
36A
100
AcDbEntity
  8
Logo-AM_8
100
AcDbHatch
 10
0.0
 20
0.0
 30
0.0
210
0.0
220
0.0
230
1.0
  2
_U
 70
     0
 71
     0
 91
        1
 92
        1
 93
        4
 72
     1
 10
-119.7001767565287
 20
12.61051027865596
 11
-120.9593366341998
 21
12.61051027865596
 72
     1
 10
-120.9593366341998
 20
12.61051027865596
 11
-121.3419499630122
 21
11.53852433210562
 72
     1
 10
-121.3419499630122
 20
11.53852433210562
 11
-120.0771239992455
 21
11.53852433210562
 72
     1
 10
-120.0771239992455
 20
11.53852433210562
 11
-119.7001767565287
 21
12.61051027865596
 97
        0
 75
     0
 76
     0
 52
45.0
 41
0.2
 77
     0
 78
     1
 53
45.0
 43
0.0
 44
0.0
 45
-0.1414213562373095
 46
0.1414213562373095
 79
     0
 98
        1
 10
0.0
 20
0.0
1001
GENIUS_GENODEF_13
1002
{
1000
HIER
1070
     0
1002
}
1002
{
1000
MANEDIT
1070
     0
1002
}
1002
{
1000
NOSEL
1070
     0
1002
}
1002
{
1000
BEHIND
1070
     0
1002
}
1002
{
1000
OTHER
1070
     0
1002
}
1002
{
1000
REACTOR
1002
}
1001
GENIUS_GENOBJ-N-HTC_13
1002
{
1000
OWNER
1000
GEN
1002
}
1001
GENIUS_GENHATCH_13
1002
{
1000
DATA
1040
45.0
1042
0.2
1000
_U
1070
     0
1011
-120.50503282162
1021
12.07351691761738
1031
0.0
1002
}
1002
{
1000
UCS
1010
0.0
1020
0.0
1030
0.0
1010
1.0
1020
0.0
1030
0.0
1010
0.0
1020
1.0
1030
0.0
1002
}
  0
HATCH
  5
4A4
330
36A
100
AcDbEntity
  8
AM_8
100
AcDbHatch
 10
0.0
 20
0.0
 30
0.0
210
0.0
220
0.0
230
1.0
  2
_U
 70
     0
 71
     0
 91
        1
 92
        1
 93
        4
 72
     1
 10
-119.5421568930441
 20
13.06054679541375
 11
-118.4754530380387
 21
16.11083404459754
 72
     1
 10
-118.4754530380387
 20
16.11083404459754
 11
-119.7337886842829
 21
16.11083404459754
 72
     1
 10
-119.7337886842829
 20
16.11083404459754
 11
-120.8037877598283
 21
13.06054679541375
 72
     1
 10
-120.8037877598283
 20
13.06054679541375
 11
-119.5421568930441
 21
13.06054679541375
 97
        0
 75
     0
 76
     0
 52
45.0
 41
0.2
 77
     0
 78
     1
 53
45.0
 43
0.0
 44
0.0
 45
-0.1414213562373095
 46
0.1414213562373095
 79
     0
 98
        1
 10
0.0
 20
0.0
1001
GENIUS_GENOBJ-N-HTC_13
1002
{
1000
OWNER
1000
GEN
1002
}
1001
GENIUS_GENODEF_13
1002
{
1000
HIER
1070
     0
1002
}
1002
{
1000
MANEDIT
1070
     0
1002
}
1002
{
1000
NOSEL
1070
     0
1002
}
1002
{
1000
BEHIND
1070
     0
1002
}
1002
{
1000
OTHER
1070
     0
1002
}
1002
{
1000
REACTOR
1002
}
1001
GENIUS_GENHATCH_13
1002
{
1000
DATA
1040
45.0
1042
0.2
1000
_U
1070
     0
1011
-119.8794712879577
1021
14.34682091804757
1031
0.0
1002
}
1002
{
1000
UCS
1010
0.0
1020
0.0
1030
0.0
1010
1.0
1020
0.0
1030
0.0
1010
0.0
1020
1.0
1030
0.0
1002
}
  0
HATCH
  5
4A5
330
36A
100
AcDbEntity
  8
Logo-AM_8
100
AcDbHatch
 10
0.0
 20
0.0
 30
0.0
210
0.0
220
0.0
230
1.0
  2
_U
 70
     0
 71
     0
 91
        1
 92
        1
 93
        7
 72
     1
 10
-128.5117590544665
 20
13.63021484235986
 11
-123.5685693997963
 21
13.63002643258787
 72
     2
 10
-123.618925922873
 20
12.97749743338765
 40
0.6544691545165561
 50
274.412844601926
 51
326.4190714449812
 73
     0
 72
     2
 10
-123.813463128489
 20
12.9926194462946
 40
0.817064671071799
 50
334.8786368757771
 51
355.2311636974514
 73
     0
 72
     1
 10
-122.9992269514769
 20
13.06054679541375
 11
-121.9564743398478
 21
13.06054679541375
 72
     2
 10
-123.3578045513184
 20
13.11082352153016
 40
1.402231832033947
 50
357.9452315121042
 51
445.0985371834923
 73
     1
 72
     1
 10
-123.2379945532484
 20
14.50792755313688
 11
-128.2142789684694
 21
14.51408066847074
 72
     1
 10
-128.2142789684694
 20
14.51408066847074
 11
-128.5117590544665
 21
13.63021484235986
 97
        0
 75
     0
 76
     0
 52
45.0
 41
0.2
 77
     0
 78
     1
 53
45.0
 43
0.0
 44
0.0
 45
-0.1414213562373095
 46
0.1414213562373095
 79
     0
 98
        1
 10
0.0
 20
0.0
1001
GENIUS_GENOBJ-N-HTC_13
1002
{
1000
OWNER
1000
GEN
1002
}
1001
GENIUS_GENODEF_13
1002
{
1000
HIER
1070
     0
1002
}
1002
{
1000
MANEDIT
1070
     0
1002
}
1002
{
1000
NOSEL
1070
     0
1002
}
1002
{
1000
BEHIND
1070
     0
1002
}
1002
{
1000
OTHER
1070
     0
1002
}
1002
{
1000
REACTOR
1002
}
1001
GENIUS_GENHATCH_13
1002
{
1000
DATA
1040
45.0
1042
0.2
1000
_U
1070
     0
1011
-124.3483296360632
1021
14.07558840430289
1031
0.0
1002
}
1002
{
1000
UCS
1010
0.0
1020
0.0
1030
0.0
1010
1.0
1020
0.0
1030
0.0
1010
0.0
1020
1.0
1030
0.0
1002
}
  0
HATCH
  5
4A6
330
36A
100
AcDbEntity
  8
Logo-AM_8
100
AcDbHatch
 10
0.0
 20
0.0
 30
0.0
210
0.0
220
0.0
230
1.0
  2
_U
 70
     0
 71
     0
 91
        1
 92
        1
 93
       21
 72
     1
 10
-123.4372659848964
 20
11.44161606443396
 11
-123.1239808094485
 21
11.52189778627047
 72
     1
 10
-123.1239808094485
 20
11.52189778627047
 11
-122.8388106205209
 21
11.64633438577829
 72
     1
 10
-122.8388106205209
 20
11.64633438577829
 11
-122.565691172935
 21
11.81894057309768
 72
     1
 10
-122.565691172935
 20
11.81894057309768
 11
-122.3849493758235
 21
11.97950471015753
 72
     1
 10
-122.3849493758235
 20
11.97950471015753
 11
-122.1961748877986
 21
12.24042065281963
 72
     1
 10
-122.1961748877986
 20
12.24042065281963
 11
-122.0515819047685
 21
12.53345011628067
 72
     1
 10
-122.0515819047685
 20
12.53345011628067
 11
-122.0333649486004
 21
12.61051027865596
 72
     1
 10
-122.0333649486004
 20
12.61051027865596
 11
-123.1553043819793
 21
12.61051027865596
 72
     1
 10
-123.1553043819793
 20
12.61051027865596
 11
-123.1613844828435
 21
12.60377688242107
 72
     1
 10
-123.1613844828435
 20
12.60377688242107
 11
-123.2745161878506
 21
12.51370869790475
 72
     1
 10
-123.2745161878506
 20
12.51370869790475
 11
-123.3857303678019
 21
12.45238486724935
 72
     1
 10
-123.3857303678019
 20
12.45238486724935
 11
-123.4921774463396
 21
12.41171287196704
 72
     1
 10
-123.4921774463396
 20
12.41171287196704
 11
-123.6926798676943
 21
12.34718212690796
 72
     1
 10
-123.6926798676943
 20
12.34718212690796
 11
-123.8863862710825
 21
12.31661485889191
 72
     1
 10
-123.8863862710825
 20
12.31661485889191
 11
-124.0969639396787
 21
12.3182623461617
 72
     1
 10
-124.0969639396787
 20
12.3182623461617
 11
-125.9520006391265
 21
12.3182623461617
 72
     1
 10
-125.9520006391265
 20
12.3182623461617
 11
-126.9097004013052
 21
9.595928310031863
 72
     1
 10
-126.9097004013052
 20
9.595928310031863
 11
-125.6208109855031
 21
9.595928310031863
 72
     1
 10
-125.6208109855031
 20
9.595928310031863
 11
-124.9886210472471
 21
11.41328496916418
 72
     1
 10
-124.9886210472471
 20
11.41328496916418
 11
-123.6591680768079
 21
11.41328496916418
 72
     1
 10
-123.6591680768079
 20
11.41328496916418
 11
-123.4372659848964
 21
11.44161606443396
 97
        0
 75
     0
 76
     0
 52
45.0
 41
0.2
 77
     0
 78
     1
 53
45.0
 43
0.0
 44
0.0
 45
-0.1414213562373095
 46
0.1414213562373095
 79
     0
 98
        1
 10
0.0
 20
0.0
1001
GENIUS_GENOBJ-N-HTC_13
1002
{
1000
OWNER
1000
GEN
1002
}
1001
GENIUS_GENODEF_13
1002
{
1000
HIER
1070
     0
1002
}
1002
{
1000
MANEDIT
1070
     0
1002
}
1002
{
1000
NOSEL
1070
     0
1002
}
1002
{
1000
BEHIND
1070
     0
1002
}
1002
{
1000
OTHER
1070
     0
1002
}
1002
{
1000
REACTOR
1002
}
1001
GENIUS_GENHATCH_13
1002
{
1000
DATA
1040
45.0
1042
0.2
1000
_U
1070
     0
1011
-123.8783114840736
1021
11.84304920127829
1031
0.0
1002
}
1002
{
1000
UCS
1010
0.0
1020
0.0
1030
0.0
1010
1.0
1020
0.0
1030
0.0
1010
0.0
1020
1.0
1030
0.0
1002
}
  0
HATCH
  5
4A7
330
36A
100
AcDbEntity
  8
AM_8
100
AcDbHatch
 10
0.0
 20
0.0
 30
0.0
210
0.0
220
0.0
230
1.0
  2
_U
 70
     0
 71
     0
 91
        1
 92
        1
 93
       52
 72
     1
 10
-111.0999102694202
 20
13.38096182089401
 11
-111.1098017814667
 21
13.27938882922788
 72
     1
 10
-111.1098017814667
 20
13.27938882922788
 11
-111.1872515896611
 21
13.06054679541375
 72
     1
 10
-111.1872515896611
 20
13.06054679541375
 11
-110.0335295705435
 21
13.06026200446467
 72
     1
 10
-110.0335295705435
 20
13.06026200446467
 11
-109.9923852372052
 21
13.18886340114906
 72
     1
 10
-109.9923852372052
 20
13.18886340114906
 11
-109.9286285702563
 21
13.35410622803951
 72
     1
 10
-109.9286285702563
 20
13.35410622803951
 11
-109.885205330713
 21
13.4969485601768
 72
     1
 10
-109.885205330713
 20
13.4969485601768
 11
-109.8606229493041
 21
13.58016656389026
 72
     1
 10
-109.8606229493041
 20
13.58016656389026
 11
-109.8439692514769
 21
13.67289459314128
 72
     1
 10
-109.8439692514769
 20
13.67289459314128
 11
-109.8441895417147
 21
13.7474911914131
 72
     1
 10
-109.8441895417147
 20
13.7474911914131
 11
-109.8629937186308
 21
13.89314033711656
 72
     1
 10
-109.8629937186308
 20
13.89314033711656
 11
-109.8836576462712
 21
13.96433559363837
 72
     1
 10
-109.8836576462712
 20
13.96433559363837
 11
-109.9880795901674
 21
14.10664513487808
 72
     1
 10
-109.9880795901674
 20
14.10664513487808
 11
-110.0513250098522
 21
14.17406682498671
 72
     1
 10
-110.0513250098522
 20
14.17406682498671
 11
-110.1289640653736
 21
14.23651346903801
 72
     1
 10
-110.1289640653736
 20
14.23651346903801
 11
-110.2855370091573
 21
14.31822087455486
 72
     1
 10
-110.2855370091573
 20
14.31822087455486
 11
-110.467957195988
 21
14.37794376404776
 72
     1
 10
-110.467957195988
 20
14.37794376404776
 11
-110.6085050027548
 21
14.40182276563445
 72
     1
 10
-110.6085050027548
 20
14.40182276563445
 11
-110.8488383264641
 21
14.42710576047096
 72
     1
 10
-110.8488383264641
 20
14.42710576047096
 11
-111.0111495756169
 21
14.42622404394052
 72
     1
 10
-111.0111495756169
 20
14.42622404394052
 11
-111.3109269621357
 21
14.3960489406615
 72
     1
 10
-111.3109269621357
 20
14.3960489406615
 11
-111.3697589954668
 21
14.38696777657509
 72
     1
 10
-111.3697589954668
 20
14.38696777657509
 11
-111.4921896797857
 21
14.35607014949454
 72
     1
 10
-111.4921896797857
 20
14.35607014949454
 11
-111.5583543711544
 21
14.3344444292365
 72
     1
 10
-111.5583543711544
 20
14.3344444292365
 11
-111.677488718771
 21
14.29142643177846
 72
     1
 10
-111.677488718771
 20
14.29142643177846
 11
-111.8146379976408
 21
14.23394608104826
 72
     1
 10
-111.8146379976408
 20
14.23394608104826
 11
-111.9370396699326
 21
14.17057184891536
 72
     1
 10
-111.9370396699326
 20
14.17057184891536
 11
-112.056669674165
 21
14.09734631972645
 72
     1
 10
-112.056669674165
 20
14.09734631972645
 11
-112.1716692980297
 21
14.03280643943017
 72
     1
 10
-112.1716692980297
 20
14.03280643943017
 11
-112.2757525156915
 21
14.03280643943017
 72
     1
 10
-112.2757525156915
 20
14.03280643943017
 11
-112.1621732790764
 21
14.35373571891267
 72
     1
 10
-112.1621732790764
 20
14.35373571891267
 11
-113.3290293174971
 21
14.35373571891267
 72
     1
 10
-113.3290293174971
 20
14.35373571891267
 11
-113.7866984057365
 21
13.06054679541375
 72
     1
 10
-113.7866984057365
 20
13.06054679541375
 11
-112.6166078293894
 21
13.06054679541375
 72
     1
 10
-112.6166078293894
 20
13.06054679541375
 11
-112.6044049243269
 21
13.08832793785839
 72
     1
 10
-112.6044049243269
 20
13.08832793785839
 11
-112.5829786423499
 21
13.12604644787524
 72
     1
 10
-112.5829786423499
 20
13.12604644787524
 11
-112.5544632406635
 21
13.17233153651449
 72
     1
 10
-112.5544632406635
 20
13.17233153651449
 11
-112.5312444831068
 21
13.20719125490535
 72
     1
 10
-112.5312444831068
 20
13.20719125490535
 11
-112.4680136415575
 21
13.2895399611354
 72
     1
 10
-112.4680136415575
 20
13.2895399611354
 11
-112.3785550957732
 21
13.37917145239208
 72
     1
 10
-112.3785550957732
 20
13.37917145239208
 11
-112.2908400909857
 21
13.45599931286796
 72
     1
 10
-112.2908400909857
 20
13.45599931286796
 11
-112.1944439906054
 21
13.52651245604733
 72
     1
 10
-112.1944439906054
 20
13.52651245604733
 11
-112.0718983037955
 21
13.59702671086023
 72
     1
 10
-112.0718983037955
 20
13.59702671086023
 11
-111.9605104684904
 21
13.62937413729145
 72
     1
 10
-111.9605104684904
 20
13.62937413729145
 11
-111.8010110852486
 21
13.66201170009475
 72
     1
 10
-111.8010110852486
 20
13.66201170009475
 11
-111.6143344139783
 21
13.67625284926291
 72
     1
 10
-111.6143344139783
 20
13.67625284926291
 11
-111.5007506900049
 21
13.66998655961646
 72
     1
 10
-111.5007506900049
 20
13.66998655961646
 11
-111.4126677715356
 21
13.65653579292956
 72
     1
 10
-111.4126677715356
 20
13.65653579292956
 11
-111.3564982144906
 21
13.64632988475199
 72
     1
 10
-111.3564982144906
 20
13.64632988475199
 11
-111.2875636773295
 21
13.62208960224206
 72
     1
 10
-111.2875636773295
 20
13.62208960224206
 11
-111.2071397469301
 21
13.5608508182749
 72
     1
 10
-111.2071397469301
 20
13.5608508182749
 11
-111.130546221699
 21
13.4766467955489
 72
     1
 10
-111.130546221699
 20
13.4766467955489
 11
-111.0999102694202
 21
13.38096182089401
 97
        0
 75
     0
 76
     0
 52
45.0
 41
0.2
 77
     0
 78
     1
 53
45.0
 43
0.0
 44
0.0
 45
-0.1414213562373095
 46
0.1414213562373095
 79
     0
 98
        1
 10
0.0
 20
0.0
1001
GENIUS_GENODEF_13
1002
{
1000
HIER
1070
     0
1002
}
1002
{
1000
MANEDIT
1070
     0
1002
}
1002
{
1000
NOSEL
1070
     0
1002
}
1002
{
1000
BEHIND
1070
     0
1002
}
1002
{
1000
OTHER
1070
     0
1002
}
1002
{
1000
REACTOR
1002
}
1001
GENIUS_GENOBJ-N-HTC_13
1002
{
1000
OWNER
1000
GEN
1002
}
1001
GENIUS_GENHATCH_13
1002
{
1000
DATA
1040
45.0
1042
0.2
1000
_U
1070
     0
1011
-110.9836292067339
1021
13.640754500502
1031
0.0
1002
}
1002
{
1000
UCS
1010
0.0
1020
0.0
1030
0.0
1010
1.0
1020
0.0
1030
0.0
1010
0.0
1020
1.0
1030
0.0
1002
}
  0
HATCH
  5
4A8
330
36A
100
AcDbEntity
  8
AM_8
100
AcDbHatch
 10
0.0
 20
0.0
 30
0.0
210
0.0
220
0.0
230
1.0
  2
_U
 70
     0
 71
     0
 91
        1
 92
        1
 93
        4
 72
     1
 10
-110.1796667903891
 20
12.61051027865596
 11
-111.3465228288097
 21
12.61051027865596
 72
     1
 10
-111.3465228288097
 20
12.61051027865596
 11
-111.7262108050893
 21
11.53766463990149
 72
     1
 10
-111.7262108050893
 20
11.53766463990149
 11
-110.5593547666686
 21
11.53766463990149
 72
     1
 10
-110.5593547666686
 20
11.53766463990149
 11
-110.1796667903891
 21
12.61051027865596
 97
        0
 75
     0
 76
     0
 52
45.0
 41
0.2
 77
     0
 78
     1
 53
45.0
 43
0.0
 44
0.0
 45
-0.1414213562373095
 46
0.1414213562373095
 79
     0
 98
        1
 10
0.0
 20
0.0
1001
GENIUS_GENODEF_13
1002
{
1000
HIER
1070
     0
1002
}
1002
{
1000
MANEDIT
1070
     0
1002
}
1002
{
1000
NOSEL
1070
     0
1002
}
1002
{
1000
BEHIND
1070
     0
1002
}
1002
{
1000
OTHER
1070
     0
1002
}
1002
{
1000
REACTOR
1002
}
1001
GENIUS_GENOBJ-N-HTC_13
1002
{
1000
OWNER
1000
GEN
1002
}
1001
GENIUS_GENHATCH_13
1002
{
1000
DATA
1040
45.0
1042
0.2
1000
_U
1070
     0
1011
-110.9095057619726
1021
11.94631018947137
1031
0.0
1002
}
1002
{
1000
UCS
1010
0.0
1020
0.0
1030
0.0
1010
1.0
1020
0.0
1030
0.0
1010
0.0
1020
1.0
1030
0.0
1002
}
  0
HATCH
  5
4A9
330
36A
100
AcDbEntity
  8
AM_8
100
AcDbHatch
 10
0.0
 20
0.0
 30
0.0
210
0.0
220
0.0
230
1.0
  2
_U
 70
     0
 71
     0
 91
        1
 92
        1
 93
        4
 72
     1
 10
-112.7791136064645
 20
12.61051027865596
 11
-113.9459696448852
 21
12.61051027865596
 72
     1
 10
-113.9459696448852
 20
12.61051027865596
 11
-114.3256576211648
 21
11.53766463990149
 72
     1
 10
-114.3256576211648
 20
11.53766463990149
 11
-113.158801582744
 21
11.53766463990149
 72
     1
 10
-113.158801582744
 20
11.53766463990149
 11
-112.7791136064645
 21
12.61051027865596
 97
        0
 75
     0
 76
     0
 52
45.0
 41
0.2
 77
     0
 78
     1
 53
45.0
 43
0.0
 44
0.0
 45
-0.1414213562373095
 46
0.1414213562373095
 79
     0
 98
        1
 10
0.0
 20
0.0
1001
GENIUS_GENOBJ-N-HTC_13
1002
{
1000
OWNER
1000
GEN
1002
}
1001
GENIUS_GENODEF_13
1002
{
1000
HIER
1070
     0
1002
}
1002
{
1000
MANEDIT
1070
     0
1002
}
1002
{
1000
NOSEL
1070
     0
1002
}
1002
{
1000
BEHIND
1070
     0
1002
}
1002
{
1000
OTHER
1070
     0
1002
}
1002
{
1000
REACTOR
1002
}
1001
GENIUS_GENHATCH_13
1002
{
1000
DATA
1040
45.0
1042
0.2
1000
_U
1070
     0
1011
-113.5280114201296
1021
11.94631018947137
1031
0.0
1002
}
1002
{
1000
UCS
1010
0.0
1020
0.0
1030
0.0
1010
1.0
1020
0.0
1030
0.0
1010
0.0
1020
1.0
1030
0.0
1002
}
  0
HATCH
  5
4AA
330
36A
100
AcDbEntity
  8
Logo-AM_8
100
AcDbHatch
 10
0.0
 20
0.0
 30
0.0
210
0.0
220
0.0
230
1.0
  2
_U
 70
     0
 71
     0
 91
        2
 92
        1
 93
       40
 72
     1
 10
-105.3755716635251
 20
13.85200406494204
 11
-105.4173904616064
 21
13.93245556806499
 72
     1
 10
-105.4173904616064
 20
13.93245556806499
 11
-105.464434343191
 21
13.9982793240776
 72
     1
 10
-105.464434343191
 20
13.9982793240776
 11
-105.5219338307984
 21
14.06305903099968
 72
     1
 10
-105.5219338307984
 20
14.06305903099968
 11
-105.5836159234168
 21
14.12261406853184
 72
     1
 10
-105.5836159234168
 20
14.12261406853184
 11
-105.6625433298018
 21
14.18789146834655
 72
     1
 10
-105.6625433298018
 20
14.18789146834655
 11
-105.7503599049637
 21
14.24953681602818
 72
     1
 10
-105.7503599049637
 20
14.24953681602818
 11
-105.829993586736
 21
14.29422460039973
 72
     1
 10
-105.829993586736
 20
14.29422460039973
 11
-106.0185890788255
 21
14.38242865379814
 72
     1
 10
-106.0185890788255
 20
14.38242865379814
 11
-106.2187192028396
 21
14.43760500634533
 72
     1
 10
-106.2187192028396
 20
14.43760500634533
 11
-106.3143879073036
 21
14.45547107521128
 72
     1
 10
-106.3143879073036
 20
14.45547107521128
 11
-106.4440232805468
 21
14.47950190004229
 72
     1
 10
-106.4440232805468
 20
14.47950190004229
 11
-106.6269755363874
 21
14.49726400639287
 72
     1
 10
-106.6269755363874
 20
14.49726400639287
 11
-106.7902095381769
 21
14.50207060224312
 72
     1
 10
-106.7902095381769
 20
14.50207060224312
 11
-106.95169619239
 21
14.50207060224312
 72
     1
 10
-106.95169619239
 20
14.50207060224312
 11
-107.1447323636777
 21
14.47865328655996
 72
     1
 10
-107.1447323636777
 20
14.47865328655996
 11
-107.337166275333
 21
14.4570847061679
 72
     1
 10
-107.337166275333
 20
14.4570847061679
 11
-107.4393418585932
 21
14.43896757888723
 72
     1
 10
-107.4393418585932
 20
14.43896757888723
 11
-107.5219010498015
 21
14.42394682178616
 72
     1
 10
-107.5219010498015
 20
14.42394682178616
 11
-107.87333663428
 21
14.31217325391381
 72
     1
 10
-107.87333663428
 20
14.31217325391381
 11
-108.0449700623504
 21
14.25176312858093
 72
     1
 10
-108.0449700623504
 20
14.25176312858093
 11
-108.1743027503549
 21
14.18900063372572
 72
     1
 10
-108.1743027503549
 20
14.18900063372572
 11
-108.3367459613055
 21
14.10920300490784
 72
     1
 10
-108.3367459613055
 20
14.10920300490784
 11
-108.4655901083448
 21
14.02340872213375
 72
     1
 10
-108.4655901083448
 20
14.02340872213375
 11
-108.614697378714
 21
13.9208383099637
 72
     1
 10
-108.614697378714
 20
13.9208383099637
 11
-108.696288091021
 21
13.8545843260951
 72
     1
 10
-108.696288091021
 20
13.8545843260951
 11
-108.7807264381831
 21
13.77562383257287
 72
     1
 10
-108.7807264381831
 20
13.77562383257287
 11
-108.9442003544595
 21
13.60353033523842
 72
     1
 10
-108.9442003544595
 20
13.60353033523842
 11
-109.0285758440941
 21
13.49947381120381
 72
     1
 10
-109.0285758440941
 20
13.49947381120381
 11
-109.1161966146001
 21
13.37833646708958
 72
     1
 10
-109.1161966146001
 20
13.37833646708958
 11
-109.2008966323219
 21
13.22946878097508
 72
     1
 10
-109.2008966323219
 20
13.22946878097508
 11
-109.2797448777397
 21
13.06054679541375
 72
     1
 10
-109.2797448777397
 20
13.06054679541375
 11
-105.365850407708
 21
13.06054679541375
 72
     1
 10
-105.365850407708
 20
13.06054679541375
 11
-105.3631576546427
 21
13.07103322549295
 72
     1
 10
-105.3631576546427
 20
13.07103322549295
 11
-105.3492359373076
 21
13.15590645347214
 72
     1
 10
-105.3492359373076
 20
13.15590645347214
 11
-105.3283192862423
 21
13.32015616792586
 72
     1
 10
-105.3283192862423
 20
13.32015616792586
 11
-105.3192542558768
 21
13.49990072110739
 72
     1
 10
-105.3192542558768
 20
13.49990072110739
 11
-105.3192542558768
 21
13.61039517920579
 72
     1
 10
-105.3192542558768
 20
13.61039517920579
 11
-105.3356891559292
 21
13.71790458593199
 72
     1
 10
-105.3356891559292
 20
13.71790458593199
 11
-105.3536179729863
 21
13.78618030892966
 72
     1
 10
-105.3536179729863
 20
13.78618030892966
 11
-105.3755716635251
 21
13.85200406494204
 97
        0
 92
       16
 93
       26
 72
     1
 10
-106.3144147253775
 20
13.43430073072159
 11
-106.3138617429421
 21
13.42295547959748
 72
     1
 10
-106.3138617429421
 20
13.42295547959748
 11
-106.336038448811
 21
13.4229522267824
 72
     1
 10
-106.336038448811
 20
13.4229522267824
 11
-107.8600190967472
 21
13.42273434789376
 72
     1
 10
-107.8600190967472
 20
13.42273434789376
 11
-107.7812149941131
 21
13.5336619949839
 72
     1
 10
-107.7812149941131
 20
13.5336619949839
 11
-107.7167441017987
 21
13.60880402475027
 72
     1
 10
-107.7167441017987
 20
13.60880402475027
 11
-107.6333512614556
 21
13.68439472728733
 72
     1
 10
-107.6333512614556
 20
13.68439472728733
 11
-107.5486059185819
 21
13.74500819170475
 72
     1
 10
-107.5486059185819
 20
13.74500819170475
 11
-107.4435549076893
 21
13.80953241627503
 72
     1
 10
-107.4435549076893
 20
13.80953241627503
 11
-107.3582022077812
 21
13.84890324204502
 72
     1
 10
-107.3582022077812
 20
13.84890324204502
 11
-107.234547941573
 21
13.89155441697062
 72
     1
 10
-107.234547941573
 20
13.89155441697062
 11
-107.0752367254096
 21
13.93238056709674
 72
     1
 10
-107.0752367254096
 20
13.93238056709674
 11
-106.981211163964
 21
13.94281567894086
 72
     1
 10
-106.981211163964
 20
13.94281567894086
 11
-106.9035492358175
 21
13.94582395598172
 72
     1
 10
-106.9035492358175
 20
13.94582395598172
 11
-106.824837577155
 21
13.94221402353287
 72
     1
 10
-106.824837577155
 20
13.94221402353287
 11
-106.7567517937106
 21
13.93079263313228
 72
     1
 10
-106.7567517937106
 20
13.93079263313228
 11
-106.6754186816424
 21
13.90862528319235
 72
     1
 10
-106.6754186816424
 20
13.90862528319235
 11
-106.6251313321932
 21
13.88632974758093
 72
     1
 10
-106.6251313321932
 20
13.88632974758093
 11
-106.5664751467111
 21
13.85485896699515
 72
     1
 10
-106.5664751467111
 20
13.85485896699515
 11
-106.522636659864
 21
13.82709102153171
 72
     1
 10
-106.522636659864
 20
13.82709102153171
 11
-106.4800346431589
 21
13.79006709424698
 72
     1
 10
-106.4800346431589
 20
13.79006709424698
 11
-106.441134784855
 21
13.74872319265296
 72
     1
 10
-106.441134784855
 20
13.74872319265296
 11
-106.3985327681498
 21
13.69010160579091
 72
     1
 10
-106.3985327681498
 20
13.69010160579091
 11
-106.3668976251806
 21
13.63670026438171
 72
     1
 10
-106.3668976251806
 20
13.63670026438171
 11
-106.3391133071109
 21
13.56758841732426
 72
     1
 10
-106.3391133071109
 20
13.56758841732426
 11
-106.3205898240622
 21
13.49909370945397
 72
     1
 10
-106.3205898240622
 20
13.49909370945397
 11
-106.3144147253775
 21
13.43430073072159
 97
        0
 75
     0
 76
     0
 52
45.0
 41
0.2
 77
     0
 78
     1
 53
45.0
 43
0.0
 44
0.0
 45
-0.1414213562373095
 46
0.1414213562373095
 79
     0
 98
        1
 10
0.0
 20
0.0
1001
GENIUS_GENOBJ-N-HTC_13
1002
{
1000
OWNER
1000
GEN
1002
}
1001
GENIUS_GENODEF_13
1002
{
1000
HIER
1070
     0
1002
}
1002
{
1000
MANEDIT
1070
     0
1002
}
1002
{
1000
NOSEL
1070
     0
1002
}
1002
{
1000
BEHIND
1070
     0
1002
}
1002
{
1000
OTHER
1070
     0
1002
}
1002
{
1000
REACTOR
1002
}
1001
GENIUS_GENHATCH_13
1002
{
1000
DATA
1040
45.0
1042
0.2
1000
_U
1070
     0
1011
-105.7169959447785
1021
13.67265287494916
1031
0.0
1002
}
1002
{
1000
UCS
1010
0.0
1020
0.0
1030
0.0
1010
1.0
1020
0.0
1030
0.0
1010
0.0
1020
1.0
1030
0.0
1002
}
  0
HATCH
  5
4AB
330
36A
100
AcDbEntity
  8
Logo-AM_8
100
AcDbHatch
 10
0.0
 20
0.0
 30
0.0
210
0.0
220
0.0
230
1.0
  2
_U
 70
     0
 71
     0
 91
        1
 92
        1
 93
       51
 72
     1
 10
-106.5093966535301
 20
11.72841485057728
 11
-106.2647730876542
 21
11.85065454535584
 72
     1
 10
-106.2647730876542
 20
11.85065454535584
 11
-106.1370309843381
 21
11.93345776714466
 72
     1
 10
-106.1370309843381
 20
11.93345776714466
 11
-106.0196998273907
 21
12.02615543237985
 72
     1
 10
-106.0196998273907
 20
12.02615543237985
 11
-105.8913513004641
 21
12.14359404843029
 72
     1
 10
-105.8913513004641
 20
12.14359404843029
 11
-105.831995942422
 21
12.20845512942554
 72
     1
 10
-105.831995942422
 20
12.20845512942554
 11
-105.7657233184268
 21
12.26965808342487
 72
     1
 10
-105.7657233184268
 20
12.26965808342487
 11
-105.7070000517197
 21
12.33337604550883
 72
     1
 10
-105.7070000517197
 20
12.33337604550883
 11
-105.661700281978
 21
12.39625677754901
 72
     1
 10
-105.661700281978
 20
12.39625677754901
 11
-105.6526134955398
 21
12.41734126045475
 72
     1
 10
-105.6526134955398
 20
12.41734126045475
 11
-106.8645772342884
 21
12.41734126045475
 72
     1
 10
-106.8645772342884
 20
12.41734126045475
 11
-106.9421575771612
 21
12.35901165342301
 72
     1
 10
-106.9421575771612
 20
12.35901165342301
 11
-107.0919456495747
 21
12.27262986795276
 72
     1
 10
-107.0919456495747
 20
12.27262986795276
 11
-107.1747245571974
 21
12.23483838266287
 72
     1
 10
-107.1747245571974
 20
12.23483838266287
 11
-107.2760643446581
 21
12.19600174726446
 72
     1
 10
-107.2760643446581
 20
12.19600174726446
 11
-107.361404353524
 21
12.1769644411242
 72
     1
 10
-107.361404353524
 20
12.1769644411242
 11
-107.4920894572833
 21
12.17155175441934
 72
     1
 10
-107.4920894572833
 20
12.17155175441934
 11
-107.6437184071988
 21
12.17840553854484
 72
     1
 10
-107.6437184071988
 20
12.17840553854484
 11
-107.7351537424825
 21
12.19591990443308
 72
     1
 10
-107.7351537424825
 20
12.19591990443308
 11
-107.8429623356119
 21
12.20812665211628
 72
     1
 10
-107.8429623356119
 20
12.20812665211628
 11
-107.9229666676047
 21
12.23554068263382
 72
     1
 10
-107.9229666676047
 20
12.23554068263382
 11
-108.005447361321
 21
12.27465964553966
 72
     1
 10
-108.005447361321
 20
12.27465964553966
 11
-108.0555481757165
 21
12.3147379996671
 72
     1
 10
-108.0555481757165
 20
12.3147379996671
 11
-108.0905990221272
 21
12.35738253868743
 72
     1
 10
-108.0905990221272
 20
12.35738253868743
 11
-108.1294589942977
 21
12.41734126045475
 72
     1
 10
-108.1294589942977
 20
12.41734126045475
 11
-108.1418780858981
 21
12.45400684885675
 72
     1
 10
-108.1418780858981
 20
12.45400684885675
 11
-108.1462329264859
 21
12.50880173036552
 72
     1
 10
-108.1462329264859
 20
12.50880173036552
 11
-108.149311410798
 21
12.61051027865596
 72
     1
 10
-108.149311410798
 20
12.61051027865596
 11
-109.3952381923132
 21
12.61051027865596
 72
     1
 10
-109.3952381923132
 20
12.61051027865596
 11
-109.4046023686806
 21
12.53078206047843
 72
     1
 10
-109.4046023686806
 20
12.53078206047843
 11
-109.4046023686806
 21
12.41734126045475
 72
     1
 10
-109.4046023686806
 20
12.41734126045475
 11
-109.3636791955992
 21
12.26903320234845
 72
     1
 10
-109.3636791955992
 20
12.26903320234845
 11
-109.324394980008
 21
12.16433410149005
 72
     1
 10
-109.324394980008
 20
12.16433410149005
 11
-109.2856039020685
 21
12.0829823272233
 72
     1
 10
-109.2856039020685
 20
12.0829823272233
 11
-109.243391681669
 21
12.02100407829556
 72
     1
 10
-109.243391681669
 20
12.02100407829556
 11
-109.1968373117243
 21
11.96028775734697
 72
     1
 10
-109.1968373117243
 20
11.96028775734697
 11
-109.138471207214
 21
11.89570491561352
 72
     1
 10
-109.138471207214
 20
11.89570491561352
 11
-109.069680317783
 21
11.83372556070156
 72
     1
 10
-109.069680317783
 20
11.83372556070156
 11
-108.9266488869216
 21
11.7330423437323
 72
     1
 10
-108.9266488869216
 20
11.7330423437323
 11
-108.8448403696307
 21
11.6865367586119
 72
     1
 10
-108.8448403696307
 20
11.6865367586119
 11
-108.7562460148634
 21
11.64539082819095
 72
     1
 10
-108.7562460148634
 20
11.64539082819095
 11
-108.5961389742209
 21
11.58507261210749
 72
     1
 10
-108.5961389742209
 20
11.58507261210749
 11
-108.4218215731832
 21
11.54278683302999
 72
     1
 10
-108.4218215731832
 20
11.54278683302999
 11
-108.3212967929021
 21
11.52172520418156
 72
     1
 10
-108.3212967929021
 20
11.52172520418156
 11
-108.1777030859021
 21
11.5008453283537
 72
     1
 10
-108.1777030859021
 20
11.5008453283537
 11
-108.0166628214611
 21
11.48390607425261
 72
     1
 10
-108.0166628214611
 20
11.48390607425261
 11
-107.8197957440102
 21
11.47336604476794
 72
     1
 10
-107.8197957440102
 20
11.47336604476794
 11
-107.409127950024
 21
11.49459462044274
 72
     1
 10
-107.409127950024
 20
11.49459462044274
 11
-107.1175908257144
 21
11.53233164241629
 72
     1
 10
-107.1175908257144
 20
11.53233164241629
 11
-106.9299995739906
 21
11.57447020051543
 72
     1
 10
-106.9299995739906
 20
11.57447020051543
 11
-106.577332659992
 21
11.70016601004118
 72
     1
 10
-106.577332659992
 20
11.70016601004118
 11
-106.5093966535301
 21
11.72841485057728
 97
        0
 75
     0
 76
     0
 52
45.0
 41
0.2
 77
     0
 78
     1
 53
45.0
 43
0.0
 44
0.0
 45
-0.1414213562373095
 46
0.1414213562373095
 79
     0
 98
        1
 10
0.0
 20
0.0
1001
GENIUS_GENOBJ-N-HTC_13
1002
{
1000
OWNER
1000
GEN
1002
}
1001
GENIUS_GENODEF_13
1002
{
1000
HIER
1070
     0
1002
}
1002
{
1000
MANEDIT
1070
     0
1002
}
1002
{
1000
NOSEL
1070
     0
1002
}
1002
{
1000
BEHIND
1070
     0
1002
}
1002
{
1000
OTHER
1070
     0
1002
}
1002
{
1000
REACTOR
1002
}
1001
GENIUS_GENHATCH_13
1002
{
1000
DATA
1040
45.0
1042
0.2
1000
_U
1070
     0
1011
-106.72419047044
1021
12.00570860844772
1031
0.0
1002
}
1002
{
1000
UCS
1010
0.0
1020
0.0
1030
0.0
1010
1.0
1020
0.0
1030
0.0
1010
0.0
1020
1.0
1030
0.0
1002
}
  0
HATCH
  5
4AC
330
36A
100
AcDbEntity
  8
Logo-AM_8
100
AcDbHatch
 10
0.0
 20
0.0
 30
0.0
210
0.0
220
0.0
230
1.0
  2
_U
 70
     0
 71
     0
 91
        1
 92
        1
 93
       12
 72
     1
 10
-104.4206675159576
 20
14.35373571891267
 11
-104.6993132718198
 21
13.56838540181598
 72
     1
 10
-104.6993132718198
 20
13.56838540181598
 11
-104.2473030543062
 21
13.56838540181598
 72
     1
 10
-104.2473030543062
 20
13.56838540181598
 11
-104.4257772349639
 21
13.06054679541375
 72
     1
 10
-104.4257772349639
 20
13.06054679541375
 11
-103.2598243404977
 21
13.06054679541375
 72
     1
 10
-103.2598243404977
 20
13.06054679541375
 11
-103.08135015984
 21
13.56838540181598
 72
     1
 10
-103.08135015984
 20
13.56838540181598
 11
-102.3063892293712
 21
13.56838540181598
 72
     1
 10
-102.3063892293712
 20
13.56838540181598
 11
-102.0339135588379
 21
14.35373571891267
 72
     1
 10
-102.0339135588379
 20
14.35373571891267
 11
-102.8053476019286
 21
14.35373571891267
 72
     1
 10
-102.8053476019286
 20
14.35373571891267
 11
-102.5044440983
 21
15.20994032722669
 72
     1
 10
-102.5044440983
 20
15.20994032722669
 11
-103.671023367315
 21
15.20815801240252
 72
     1
 10
-103.671023367315
 20
15.20815801240252
 11
-103.9713004963948
 21
14.35373571891267
 72
     1
 10
-103.9713004963948
 20
14.35373571891267
 11
-104.4206675159576
 21
14.35373571891267
 97
        0
 75
     0
 76
     0
 52
45.0
 41
0.2
 77
     0
 78
     1
 53
45.0
 43
0.0
 44
0.0
 45
-0.1414213562373095
 46
0.1414213562373095
 79
     0
 98
        1
 10
0.0
 20
0.0
1001
GENIUS_GENOBJ-N-HTC_13
1002
{
1000
OWNER
1000
GEN
1002
}
1001
GENIUS_GENODEF_13
1002
{
1000
HIER
1070
     0
1002
}
1002
{
1000
MANEDIT
1070
     0
1002
}
1002
{
1000
NOSEL
1070
     0
1002
}
1002
{
1000
BEHIND
1070
     0
1002
}
1002
{
1000
OTHER
1070
     0
1002
}
1002
{
1000
REACTOR
1002
}
1001
GENIUS_GENHATCH_13
1002
{
1000
DATA
1040
45.0
1042
0.2
1000
_U
1070
     0
1011
-103.5297450586537
1021
14.05524540549822
1031
0.0
1002
}
1002
{
1000
UCS
1010
0.0
1020
0.0
1030
0.0
1010
1.0
1020
0.0
1030
0.0
1010
0.0
1020
1.0
1030
0.0
1002
}
  0
HATCH
  5
4AD
330
36A
100
AcDbEntity
  8
AM_8
100
AcDbHatch
 10
0.0
 20
0.0
 30
0.0
210
0.0
220
0.0
230
1.0
  2
_U
 70
     0
 71
     0
 91
        1
 92
        1
 93
        4
 72
     1
 10
-104.5839375197116
 20
12.61051027865596
 11
-104.9609985771045
 21
11.53760347942474
 72
     1
 10
-104.9609985771045
 20
11.53760347942474
 11
-103.794368013939
 21
11.53953174897356
 72
     1
 10
-103.794368013939
 20
11.53953174897356
 11
-103.4179846252454
 21
12.61051027865596
 72
     1
 10
-103.4179846252454
 20
12.61051027865596
 11
-104.5839375197116
 21
12.61051027865596
 97
        0
 75
     0
 76
     0
 52
45.0
 41
0.2
 77
     0
 78
     1
 53
45.0
 43
0.0
 44
0.0
 45
-0.1414213562373095
 46
0.1414213562373095
 79
     0
 98
        1
 10
0.0
 20
0.0
1001
GENIUS_GENODEF_13
1002
{
1000
HIER
1070
     0
1002
}
1002
{
1000
MANEDIT
1070
     0
1002
}
1002
{
1000
NOSEL
1070
     0
1002
}
1002
{
1000
BEHIND
1070
     0
1002
}
1002
{
1000
OTHER
1070
     0
1002
}
1002
{
1000
REACTOR
1002
}
1001
GENIUS_GENOBJ-N-HTC_13
1002
{
1000
OWNER
1000
GEN
1002
}
1001
GENIUS_GENHATCH_13
1002
{
1000
DATA
1040
45.0
1042
0.2
1000
_U
1070
     0
1011
-103.9335100087157
1021
11.94984678216679
1031
0.0
1002
}
1002
{
1000
UCS
1010
0.0
1020
0.0
1030
0.0
1010
1.0
1020
0.0
1030
0.0
1010
0.0
1020
1.0
1030
0.0
1002
}
  0
HATCH
  5
4AE
330
36A
100
AcDbEntity
  8
AM_8
100
AcDbHatch
 10
0.0
 20
0.0
 30
0.0
210
0.0
220
0.0
230
1.0
  2
_U
 70
     0
 71
     0
 91
        1
 92
        1
 93
       39
 72
     1
 10
-100.8059390893399
 20
13.06054679541375
 11
-100.7197882491896
 21
13.16548689266102
 72
     1
 10
-100.7197882491896
 20
13.16548689266102
 11
-100.6606663776829
 21
13.22325786845437
 72
     1
 10
-100.6606663776829
 20
13.22325786845437
 11
-100.6107399355174
 21
13.26789878333494
 72
     1
 10
-100.6107399355174
 20
13.26789878333494
 11
-100.5621268637028
 21
13.30334984011421
 72
     1
 10
-100.5621268637028
 20
13.30334984011421
 11
-100.5157860144404
 21
13.33247869664575
 72
     1
 10
-100.5157860144404
 20
13.33247869664575
 11
-100.4486773816925
 21
13.37318156241969
 72
     1
 10
-100.4486773816925
 20
13.37318156241969
 11
-100.3785581053936
 21
13.41254269155439
 72
     1
 10
-100.3785581053936
 20
13.41254269155439
 11
-100.2976857133326
 21
13.44933333126806
 72
     1
 10
-100.2976857133326
 20
13.44933333126806
 11
-100.1956509767861
 21
13.48216332938574
 72
     1
 10
-100.1956509767861
 20
13.48216332938574
 11
-100.0932793646289
 21
13.5076050434123
 72
     1
 10
-100.0932793646289
 20
13.5076050434123
 11
-99.97259440595602
 21
13.53614593855133
 72
     1
 10
-99.97259440595602
 20
13.53614593855133
 11
-99.85268644820422
 21
13.55351233667653
 72
     1
 10
-99.85268644820422
 20
13.55351233667653
 11
-99.68662867687729
 21
13.56838540181598
 72
     1
 10
-99.68662867687729
 20
13.56838540181598
 11
-99.52403760011833
 21
13.55761170006153
 72
     1
 10
-99.52403760011833
 20
13.55761170006153
 11
-99.32144559147587
 21
13.49856271408526
 72
     1
 10
-99.32144559147587
 20
13.49856271408526
 11
-99.28104889110413
 21
13.47918475573812
 72
     1
 10
-99.28104889110413
 20
13.47918475573812
 11
-99.21160019376944
 21
13.46730827893583
 72
     1
 10
-99.21160019376944
 20
13.46730827893583
 11
-98.98733519539296
 21
14.08724236708309
 72
     1
 10
-98.98733519539296
 20
14.08724236708309
 11
-98.94206157434613
 21
14.20573489415602
 72
     1
 10
-98.94206157434613
 20
14.20573489415602
 11
-98.92409687219835
 21
14.248822987923
 72
     1
 10
-98.92409687219835
 20
14.248822987923
 11
-98.89966450990051
 21
14.31273632961875
 72
     1
 10
-98.89966450990051
 20
14.31273632961875
 11
-98.8716373702919
 21
14.37018748025895
 72
     1
 10
-98.8716373702919
 20
14.37018748025895
 11
-99.00458167683156
 21
14.38167749501673
 72
     1
 10
-99.00458167683156
 20
14.38167749501673
 11
-99.11550728350952
 21
14.38600859523745
 72
     1
 10
-99.11550728350952
 20
14.38600859523745
 11
-99.25005886145806
 21
14.38220299897176
 72
     1
 10
-99.25005886145806
 20
14.38220299897176
 11
-99.41380583571941
 21
14.36824914599816
 72
     1
 10
-99.41380583571941
 20
14.36824914599816
 11
-99.5603357186483
 21
14.35373571891267
 72
     1
 10
-99.5603357186483
 20
14.35373571891267
 11
-99.63903507435638
 21
14.33639046871582
 72
     1
 10
-99.63903507435638
 20
14.33639046871582
 11
-99.71617778374984
 21
14.31541368456305
 72
     1
 10
-99.71617778374984
 20
14.31541368456305
 11
-99.94114148214434
 21
14.22603033071965
 72
     1
 10
-99.94114148214434
 20
14.22603033071965
 11
-100.0658528853069
 21
14.16613903261537
 72
     1
 10
-100.0658528853069
 20
14.16613903261537
 11
-100.1355099892837
 21
14.12689977030254
 72
     1
 10
-100.1355099892837
 20
14.12689977030254
 11
-100.3735701477946
 21
13.95842078145401
 72
     1
 10
-100.3735701477946
 20
13.95842078145401
 11
-100.491436311815
 21
13.850874349344
 72
     1
 10
-100.491436311815
 20
13.850874349344
 11
-100.5261013528226
 21
13.85680990533745
 72
     1
 10
-100.5261013528226
 20
13.85680990533745
 11
-100.3514623507707
 21
14.35373571891267
 72
     1
 10
-100.3514623507707
 20
14.35373571891267
 11
-101.517415245237
 21
14.35373571891267
 72
     1
 10
-101.517415245237
 20
14.35373571891267
 11
-101.9718919838061
 21
13.06054679541375
 72
     1
 10
-101.9718919838061
 20
13.06054679541375
 11
-100.8059390893399
 21
13.06054679541375
 97
        0
 75
     0
 76
     0
 52
45.0
 41
0.2
 77
     0
 78
     1
 53
45.0
 43
0.0
 44
0.0
 45
-0.1414213562373095
 46
0.1414213562373095
 79
     0
 98
        1
 10
0.0
 20
0.0
1001
GENIUS_GENODEF_13
1002
{
1000
HIER
1070
     0
1002
}
1002
{
1000
MANEDIT
1070
     0
1002
}
1002
{
1000
NOSEL
1070
     0
1002
}
1002
{
1000
BEHIND
1070
     0
1002
}
1002
{
1000
OTHER
1070
     0
1002
}
1002
{
1000
REACTOR
1002
}
1001
GENIUS_GENOBJ-N-HTC_13
1002
{
1000
OWNER
1000
GEN
1002
}
1001
GENIUS_GENHATCH_13
1002
{
1000
DATA
1040
45.0
1042
0.2
1000
_U
1070
     0
1011
-101.1948816540928
1021
13.7688493529584
1031
0.0
1002
}
1002
{
1000
UCS
1010
0.0
1020
0.0
1030
0.0
1010
1.0
1020
0.0
1030
0.0
1010
0.0
1020
1.0
1030
0.0
1002
}
  0
HATCH
  5
4AF
330
36A
100
AcDbEntity
  8
AM_8
100
AcDbHatch
 10
0.0
 20
0.0
 30
0.0
210
0.0
220
0.0
230
1.0
  2
_U
 70
     0
 71
     0
 91
        1
 92
        1
 93
        4
 72
     1
 10
-100.9641007804999
 20
12.6105062767858
 11
-102.1300536749661
 21
12.6105062767858
 72
     1
 10
-102.1300536749661
 20
12.6105062767858
 11
-102.507114732359
 21
11.53759947755458
 72
     1
 10
-102.507114732359
 20
11.53759947755458
 11
-101.3404841691935
 21
11.53952774710339
 72
     1
 10
-101.3404841691935
 20
11.53952774710339
 11
-100.9641007804999
 21
12.6105062767858
 97
        0
 75
     0
 76
     0
 52
45.0
 41
0.2
 77
     0
 78
     1
 53
45.0
 43
0.0
 44
0.0
 45
-0.1414213562373095
 46
0.1414213562373095
 79
     0
 98
        1
 10
0.0
 20
0.0
1001
GENIUS_GENODEF_13
1002
{
1000
HIER
1070
     0
1002
}
1002
{
1000
MANEDIT
1070
     0
1002
}
1002
{
1000
NOSEL
1070
     0
1002
}
1002
{
1000
BEHIND
1070
     0
1002
}
1002
{
1000
OTHER
1070
     0
1002
}
1002
{
1000
REACTOR
1002
}
1001
GENIUS_GENOBJ-N-HTC_13
1002
{
1000
OWNER
1000
GEN
1002
}
1001
GENIUS_GENHATCH_13
1002
{
1000
DATA
1040
45.0
1042
0.2
1000
_U
1070
     0
1011
-101.6508346479175
1021
11.84890785769767
1031
0.0
1002
}
1002
{
1000
UCS
1010
0.0
1020
0.0
1030
0.0
1010
1.0
1020
0.0
1030
0.0
1010
0.0
1020
1.0
1030
0.0
1002
}
  0
HATCH
  5
4B0
330
36A
100
AcDbEntity
  8
Logo-AM_8
100
AcDbHatch
 10
0.0
 20
0.0
 30
0.0
210
0.0
220
0.0
230
1.0
  2
_U
 70
     0
 71
     0
 91
        1
 92
        1
 93
       40
 72
     1
 10
-96.75701839208038
 20
14.43240356564294
 11
-97.2431801511955
 21
14.33261290281189
 72
     1
 10
-97.2431801511955
 20
14.33261290281189
 11
-97.6753443421758
 21
14.17065750514808
 72
     1
 10
-97.6753443421758
 20
14.17065750514808
 11
-97.918527261671
 21
14.04914763774246
 72
     1
 10
-97.918527261671
 20
14.04914763774246
 11
-98.1255603510772
 21
13.92106897089735
 72
     1
 10
-98.1255603510772
 20
13.92106897089735
 11
-98.30959017207858
 21
13.78313925859726
 72
     1
 10
-98.30959017207858
 20
13.78313925859726
 11
-98.47791098154951
 21
13.6308378746051
 72
     1
 10
-98.47791098154951
 20
13.6308378746051
 11
-98.63564951606399
 21
13.44693087363708
 72
     1
 10
-98.63564951606399
 20
13.44693087363708
 11
-98.77038661905501
 21
13.25317175036167
 72
     1
 10
-98.77038661905501
 20
13.25317175036167
 11
-98.8656877107565
 21
13.06054679541375
 72
     1
 10
-98.8656877107565
 20
13.06054679541375
 11
-97.56626896859124
 21
13.06054679541378
 72
     1
 10
-97.56626896859124
 20
13.06054679541378
 11
-97.4605026690447
 21
13.21108405244359
 72
     1
 10
-97.4605026690447
 20
13.21108405244359
 11
-97.36376146216073
 21
13.31333872267197
 72
     1
 10
-97.36376146216073
 20
13.31333872267197
 11
-97.25957721099259
 21
13.39700153678137
 72
     1
 10
-97.25957721099259
 20
13.39700153678137
 11
-97.11632616173808
 21
13.48066542774296
 72
     1
 10
-97.11632616173808
 20
13.48066542774296
 11
-96.97865555881529
 21
13.54201801450955
 72
     1
 10
-96.97865555881529
 20
13.54201801450955
 11
-96.83540267267929
 21
13.58663846919518
 72
     1
 10
-96.83540267267929
 20
13.58663846919518
 11
-96.70808473451144
 21
13.60890131503385
 72
     1
 10
-96.70808473451144
 20
13.60890131503385
 11
-96.50343959119849
 21
13.62377479992898
 72
     1
 10
-96.50343959119849
 20
13.62377479992898
 11
-96.37507095675033
 21
13.60890131503385
 72
     1
 10
-96.37507095675033
 20
13.60890131503385
 11
-96.22809838535344
 21
13.56613950753382
 72
     1
 10
-96.22809838535344
 20
13.56613950753382
 11
-96.10903171937893
 21
13.49177315991034
 72
     1
 10
-96.10903171937893
 20
13.49177315991034
 11
-96.02531216622995
 21
13.41740573543421
 72
     1
 10
-96.02531216622995
 20
13.41740573543421
 11
-95.96391807217155
 21
13.3337418444724
 72
     1
 10
-95.96391807217155
 20
13.3337418444724
 11
-95.92484943720371
 21
13.24078364072972
 72
     1
 10
-95.92484943720371
 20
13.24078364072972
 11
-95.90996702239776
 21
13.13480952242531
 72
     1
 10
-95.90996702239776
 20
13.13480952242531
 11
-95.90996702239776
 21
13.06054679541375
 72
     1
 10
-95.90996702239776
 20
13.06054679541375
 11
-94.61978362765696
 21
13.06054679541375
 72
     1
 10
-94.61978362765696
 20
13.06054679541375
 11
-94.59001696116372
 21
13.19461144178314
 72
     1
 10
-94.59001696116372
 20
13.19461144178314
 11
-94.58128626287001
 21
13.32677030224755
 72
     1
 10
-94.58128626287001
 20
13.32677030224755
 11
-94.58128626287001
 21
13.49425745832133
 72
     1
 10
-94.58128626287001
 20
13.49425745832133
 11
-94.60757571247544
 21
13.64203929292836
 72
     1
 10
-94.60757571247544
 20
13.64203929292836
 11
-94.67001499217031
 21
13.79967432669497
 72
     1
 10
-94.67001499217031
 20
13.79967432669497
 11
-94.73905284679181
 21
13.92236360943937
 72
     1
 10
-94.73905284679181
 20
13.92236360943937
 11
-94.96249062967583
 21
14.12151211681572
 72
     1
 10
-94.96249062967583
 20
14.12151211681572
 11
-95.17938226268372
 21
14.24959078366082
 72
     1
 10
-95.17938226268372
 20
14.24959078366082
 11
-95.37984298968879
 21
14.33497548470524
 72
     1
 10
-95.37984298968879
 20
14.33497548470524
 11
-95.62302407230257
 21
14.39737261826786
 72
     1
 10
-95.62302407230257
 20
14.39737261826786
 11
-95.96650072771538
 21
14.45308680604017
 72
     1
 10
-95.96650072771538
 20
14.45308680604017
 11
-96.3056187698317
 21
14.47325033403322
 72
     1
 10
-96.3056187698317
 20
14.47325033403322
 11
-96.75701839208038
 21
14.43240356564294
 97
        0
 75
     0
 76
     0
 52
45.0
 41
0.2
 77
     0
 78
     1
 53
45.0
 43
0.0
 44
0.0
 45
-0.1414213562373095
 46
0.1414213562373095
 79
     0
 98
        1
 10
0.0
 20
0.0
1001
GENIUS_GENODEF_13
1002
{
1000
HIER
1070
     0
1002
}
1002
{
1000
MANEDIT
1070
     0
1002
}
1002
{
1000
NOSEL
1070
     0
1002
}
1002
{
1000
BEHIND
1070
     0
1002
}
1002
{
1000
OTHER
1070
     0
1002
}
1002
{
1000
REACTOR
1002
}
1001
GENIUS_GENOBJ-N-HTC_13
1002
{
1000
OWNER
1000
GEN
1002
}
1001
GENIUS_GENHATCH_13
1002
{
1000
DATA
1040
45.0
1042
0.2
1000
_U
1070
     0
1011
-96.11983213424842
1021
14.09919255798263
1031
0.0
1002
}
1002
{
1000
UCS
1010
0.0
1020
0.0
1030
0.0
1010
1.0
1020
0.0
1030
0.0
1010
0.0
1020
1.0
1030
0.0
1002
}
  0
HATCH
  5
4B1
330
36A
100
AcDbEntity
  8
Logo-AM_8
100
AcDbHatch
 10
0.0
 20
0.0
 30
0.0
210
0.0
220
0.0
230
1.0
  2
_U
 70
     0
 71
     0
 91
        1
 92
        1
 93
       47
 72
     1
 10
-96.8328567547674
 20
11.46867554179454
 11
-96.70444036139684
 21
11.48920788587912
 72
     1
 10
-96.70444036139684
 20
11.48920788587912
 11
-96.56446814581663
 21
11.52000694043232
 72
     1
 10
-96.56446814581663
 20
11.52000694043232
 11
-96.38018850891604
 21
11.56641066263802
 72
     1
 10
-96.38018850891604
 20
11.56641066263802
 11
-96.25450487273809
 21
11.60498144689424
 72
     1
 10
-96.25450487273809
 20
11.60498144689424
 11
-95.98723728421331
 21
11.70629055457499
 72
     1
 10
-95.98723728421331
 20
11.70629055457499
 11
-95.83698955290541
 21
11.77302309576777
 72
     1
 10
-95.83698955290541
 20
11.77302309576777
 11
-95.64257032951678
 21
11.87356557073241
 72
     1
 10
-95.64257032951678
 20
11.87356557073241
 11
-95.50131229680941
 21
11.95826323996658
 72
     1
 10
-95.50131229680941
 20
11.95826323996658
 11
-95.37803366130267
 21
12.04296090920076
 72
     1
 10
-95.37803366130267
 20
12.04296090920076
 11
-95.26631084800603
 21
12.12509243924393
 72
     1
 10
-95.26631084800603
 20
12.12509243924393
 11
-95.14172374291979
 21
12.23005148460939
 72
     1
 10
-95.14172374291979
 20
12.23005148460939
 11
-94.96541494519899
 21
12.4131978289634
 72
     1
 10
-94.96541494519899
 20
12.4131978289634
 11
-94.87423948959444
 21
12.52356227436877
 72
     1
 10
-94.87423948959444
 20
12.52356227436877
 11
-94.81516905077299
 21
12.61051027865596
 72
     1
 10
-94.81516905077299
 20
12.61051027865596
 11
-96.19070854994802
 21
12.61051027865596
 72
     1
 10
-96.19070854994802
 20
12.61051027865596
 11
-96.3084839983799
 21
12.52223774595705
 72
     1
 10
-96.3084839983799
 20
12.52223774595705
 11
-96.41655876479857
 21
12.46004413749193
 72
     1
 10
-96.41655876479857
 20
12.46004413749193
 11
-96.57307393616068
 21
12.3829727367218
 72
     1
 10
-96.57307393616068
 20
12.3829727367218
 11
-96.6940509590095
 21
12.33762217613122
 72
     1
 10
-96.6940509590095
 20
12.33762217613122
 11
-96.81654157230518
 21
12.30815303425157
 72
     1
 10
-96.81654157230518
 20
12.30815303425157
 11
-97.01842220879463
 21
12.28775206615575
 72
     1
 10
-97.01842220879463
 20
12.28775206615575
 11
-97.1772059289456
 21
12.30815303425157
 72
     1
 10
-97.1772059289456
 20
12.30815303425157
 11
-97.32464690515284
 21
12.36028991846007
 72
     1
 10
-97.32464690515284
 20
12.36028991846007
 11
-97.43125951380994
 21
12.41922820221936
 72
     1
 10
-97.43125951380994
 20
12.41922820221936
 11
-97.53333502488979
 21
12.5053666999209
 72
     1
 10
-97.53333502488979
 20
12.5053666999209
 11
-97.59596901403488
 21
12.61051027865596
 72
     1
 10
-97.59596901403488
 20
12.61051027865596
 11
-98.98756113183123
 21
12.61051027865596
 72
     1
 10
-98.98756113183123
 20
12.61051027865596
 11
-98.9907224050826
 21
12.54516716341101
 72
     1
 10
-98.9907224050826
 20
12.54516716341101
 11
-98.9907224050826
 21
12.42710322358044
 72
     1
 10
-98.9907224050826
 20
12.42710322358044
 11
-98.967608923781
 21
12.30262232049387
 72
     1
 10
-98.967608923781
 20
12.30262232049387
 11
-98.9252320650335
 21
12.19354148311009
 72
     1
 10
-98.9252320650335
 20
12.19354148311009
 11
-98.8816318431332
 21
12.10577693833426
 72
     1
 10
-98.8816318431332
 20
12.10577693833426
 11
-98.81999344382078
 21
12.00824534258828
 72
     1
 10
-98.81999344382078
 20
12.00824534258828
 11
-98.75450126688978
 21
11.92354767335411
 72
     1
 10
-98.75450126688978
 20
11.92354767335411
 11
-98.6928610306959
 21
11.8568151321611
 72
     1
 10
-98.6928610306959
 20
11.8568151321611
 11
-98.61734329528623
 21
11.7935212552436
 72
     1
 10
-98.61734329528623
 20
11.7935212552436
 11
-98.44454035333686
 21
11.68949381135195
 72
     1
 10
-98.44454035333686
 20
11.68949381135195
 11
-98.32254569807544
 21
11.62789462539336
 72
     1
 10
-98.32254569807544
 20
11.62789462539336
 11
-98.21981258337931
 21
11.58554525234996
 72
     1
 10
-98.21981258337931
 20
11.58554525234996
 11
-98.08754424927204
 21
11.54191334813737
 72
     1
 10
-98.08754424927204
 20
11.54191334813737
 11
-97.9334445772279
 21
11.50213119113738
 72
     1
 10
-97.9334445772279
 20
11.50213119113738
 11
-97.73766606144732
 21
11.46859477786694
 72
     1
 10
-97.73766606144732
 20
11.46859477786694
 11
-97.5784323053022
 21
11.45191110414254
 72
     1
 10
-97.5784323053022
 20
11.45191110414254
 11
-97.37425005615527
 21
11.44172623445394
 72
     1
 10
-97.37425005615527
 20
11.44172623445394
 11
-97.10766526494586
 21
11.44172623445394
 72
     1
 10
-97.10766526494586
 20
11.44172623445394
 11
-96.95485141002841
 21
11.45199186807014
 72
     1
 10
-96.95485141002841
 20
11.45199186807014
 11
-96.8328567547674
 21
11.46867554179454
 97
        0
 75
     0
 76
     0
 52
45.0
 41
0.2
 77
     0
 78
     1
 53
45.0
 43
0.0
 44
0.0
 45
-0.1414213562373095
 46
0.1414213562373095
 79
     0
 98
        1
 10
0.0
 20
0.0
1001
GENIUS_GENOBJ-N-HTC_13
1002
{
1000
OWNER
1000
GEN
1002
}
1001
GENIUS_GENODEF_13
1002
{
1000
HIER
1070
     0
1002
}
1002
{
1000
MANEDIT
1070
     0
1002
}
1002
{
1000
NOSEL
1070
     0
1002
}
1002
{
1000
BEHIND
1070
     0
1002
}
1002
{
1000
OTHER
1070
     0
1002
}
1002
{
1000
REACTOR
1002
}
1001
GENIUS_GENHATCH_13
1002
{
1000
DATA
1040
45.0
1042
0.2
1000
_U
1070
     0
1011
-97.03372573632568
1021
11.85106111635326
1031
0.0
1002
}
1002
{
1000
UCS
1010
0.0
1020
0.0
1030
0.0
1010
1.0
1020
0.0
1030
0.0
1010
0.0
1020
1.0
1030
0.0
1002
}
  0
HATCH
  5
4B2
330
36A
100
AcDbEntity
  8
AM_8
100
AcDbHatch
 10
0.0
 20
0.0
 30
0.0
210
0.0
220
0.0
230
1.0
  2
_U
 70
     0
 71
     0
 91
        1
 92
        1
 93
        4
 72
     1
 10
-92.74385636544799
 20
16.11083404459754
 11
-93.81584559727448
 21
13.06054679541375
 72
     1
 10
-93.81584559727448
 20
13.06054679541375
 11
-92.64989270280819
 21
13.06054679541375
 72
     1
 10
-92.64989270280819
 20
13.06054679541375
 11
-91.57790347098174
 21
16.11083404459754
 72
     1
 10
-91.57790347098174
 20
16.11083404459754
 11
-92.74385636544799
 21
16.11083404459754
 97
        0
 75
     0
 76
     0
 52
45.0
 41
0.2
 77
     0
 78
     1
 53
45.0
 43
0.0
 44
0.0
 45
-0.1414213562373095
 46
0.1414213562373095
 79
     0
 98
        1
 10
0.0
 20
0.0
1001
GENIUS_GENOBJ-N-HTC_13
1002
{
1000
OWNER
1000
GEN
1002
}
1001
GENIUS_GENODEF_13
1002
{
1000
HIER
1070
     0
1002
}
1002
{
1000
MANEDIT
1070
     0
1002
}
1002
{
1000
NOSEL
1070
     0
1002
}
1002
{
1000
BEHIND
1070
     0
1002
}
1002
{
1000
OTHER
1070
     0
1002
}
1002
{
1000
REACTOR
1002
}
1001
GENIUS_GENHATCH_13
1002
{
1000
DATA
1040
45.0
1042
0.2
1000
_U
1070
     0
1011
-92.53384811167187
1021
14.38681579083737
1031
0.0
1002
}
1002
{
1000
UCS
1010
0.0
1020
0.0
1030
0.0
1010
1.0
1020
0.0
1030
0.0
1010
0.0
1020
1.0
1030
0.0
1002
}
  0
HATCH
  5
4B3
330
36A
100
AcDbEntity
  8
AM_8
100
AcDbHatch
 10
0.0
 20
0.0
 30
0.0
210
0.0
220
0.0
230
1.0
  2
_U
 70
     0
 71
     0
 91
        1
 92
        1
 93
        4
 72
     1
 10
-93.97400588202213
 20
12.61051027865596
 11
-94.35039067712819
 21
11.53458930214762
 72
     1
 10
-94.35039067712819
 20
11.53458930214762
 11
-93.18617334373598
 21
11.53458930214762
 72
     1
 10
-93.18617334373598
 20
11.53458930214762
 11
-92.80805298755586
 21
12.61051027865596
 72
     1
 10
-92.80805298755586
 20
12.61051027865596
 11
-93.97400588202213
 21
12.61051027865596
 97
        0
 75
     0
 76
     0
 52
45.0
 41
0.2
 77
     0
 78
     1
 53
45.0
 43
0.0
 44
0.0
 45
-0.1414213562373095
 46
0.1414213562373095
 79
     0
 98
        1
 10
0.0
 20
0.0
1001
GENIUS_GENOBJ-N-HTC_13
1002
{
1000
OWNER
1000
GEN
1002
}
1001
GENIUS_GENODEF_13
1002
{
1000
HIER
1070
     0
1002
}
1002
{
1000
MANEDIT
1070
     0
1002
}
1002
{
1000
NOSEL
1070
     0
1002
}
1002
{
1000
BEHIND
1070
     0
1002
}
1002
{
1000
OTHER
1070
     0
1002
}
1002
{
1000
REACTOR
1002
}
1001
GENIUS_GENHATCH_13
1002
{
1000
DATA
1040
45.0
1042
0.2
1000
_U
1070
     0
1011
-93.35055373644129
1021
11.99361356264017
1031
0.0
1002
}
1002
{
1000
UCS
1010
0.0
1020
0.0
1030
0.0
1010
1.0
1020
0.0
1030
0.0
1010
0.0
1020
1.0
1030
0.0
1002
}
  0
HATCH
  5
4B4
330
36A
100
AcDbEntity
  8
AM_8
100
AcDbHatch
 10
0.0
 20
0.0
 30
0.0
210
0.0
220
0.0
230
1.0
  2
_U
 70
     0
 71
     0
 91
        1
 92
        1
 93
        4
 72
     1
 10
-90.53774609537336
 20
13.06054679541375
 11
-89.46575686354689
 21
16.11083404459754
 72
     1
 10
-89.46575686354689
 20
16.11083404459754
 11
-90.63170975801316
 21
16.11083404459754
 72
     1
 10
-90.63170975801316
 20
16.11083404459754
 11
-91.70369898983965
 21
13.06054679541375
 72
     1
 10
-91.70369898983965
 20
13.06054679541375
 11
-90.53774609537336
 21
13.06054679541375
 97
        0
 75
     0
 76
     0
 52
45.0
 41
0.2
 77
     0
 78
     1
 53
45.0
 43
0.0
 44
0.0
 45
-0.1414213562373095
 46
0.1414213562373095
 79
     0
 98
        1
 10
0.0
 20
0.0
1001
GENIUS_GENOBJ-N-HTC_13
1002
{
1000
OWNER
1000
GEN
1002
}
1001
GENIUS_GENODEF_13
1002
{
1000
HIER
1070
     0
1002
}
1002
{
1000
MANEDIT
1070
     0
1002
}
1002
{
1000
NOSEL
1070
     0
1002
}
1002
{
1000
BEHIND
1070
     0
1002
}
1002
{
1000
OTHER
1070
     0
1002
}
1002
{
1000
REACTOR
1002
}
1001
GENIUS_GENHATCH_13
1002
{
1000
DATA
1040
45.0
1042
0.2
1000
_U
1070
     0
1011
-91.12191626019011
1021
13.76430643625804
1031
0.0
1002
}
1002
{
1000
UCS
1010
0.0
1020
0.0
1030
0.0
1010
1.0
1020
0.0
1030
0.0
1010
0.0
1020
1.0
1030
0.0
1002
}
  0
HATCH
  5
4B5
330
36A
100
AcDbEntity
  8
AM_8
100
AcDbHatch
 10
0.0
 20
0.0
 30
0.0
210
0.0
220
0.0
230
1.0
  2
_U
 70
     0
 71
     0
 91
        1
 92
        1
 93
        6
 72
     1
 10
-87.78723061996927
 20
12.3182623461617
 11
-90.79861363719697
 21
12.3182623461617
 72
     1
 10
-90.79861363719697
 20
12.3182623461617
 11
-90.69590638012099
 21
12.61051027865596
 72
     1
 10
-90.69590638012099
 20
12.61051027865596
 11
-91.86185927458728
 21
12.61051027865596
 72
     1
 10
-91.86185927458728
 20
12.61051027865596
 11
-92.23824406969335
 21
11.53952774710339
 72
     1
 10
-92.23824406969335
 20
11.53952774710339
 11
-88.05200057214781
 21
11.53952774710339
 72
     1
 10
-88.05200057214781
 20
11.53952774710339
 11
-87.78723061996927
 21
12.3182623461617
 97
        0
 75
     0
 76
     0
 52
45.0
 41
0.2
 77
     0
 78
     1
 53
45.0
 43
0.0
 44
0.0
 45
-0.1414213562373095
 46
0.1414213562373095
 79
     0
 98
        1
 10
0.0
 20
0.0
1001
GENIUS_GENODEF_13
1002
{
1000
HIER
1070
     0
1002
}
1002
{
1000
MANEDIT
1070
     0
1002
}
1002
{
1000
NOSEL
1070
     0
1002
}
1002
{
1000
BEHIND
1070
     0
1002
}
1002
{
1000
OTHER
1070
     0
1002
}
1002
{
1000
REACTOR
1002
}
1001
GENIUS_GENOBJ-N-HTC_13
1002
{
1000
OWNER
1000
GEN
1002
}
1001
GENIUS_GENHATCH_13
1002
{
1000
DATA
1040
45.0
1042
0.2
1000
_U
1070
     0
1011
-91.7171424869025
1021
11.85527835132643
1031
0.0
1002
}
1002
{
1000
UCS
1010
0.0
1020
0.0
1030
0.0
1010
1.0
1020
0.0
1030
0.0
1010
0.0
1020
1.0
1030
0.0
1002
}
  0
ENDBLK
  5
4B8
330
36A
100
AcDbEntity
  8
0
100
AcDbBlockEnd
  0
BLOCK
  5
7E1
330
7DC
100
AcDbEntity
  8
0
100
AcDbBlockBegin
  2
*S755
 70
     1
 10
0.0
 20
0.0
 30
0.0
  3
*S755
  1

  0
LINE
  5
7DD
330
7DC
100
AcDbEntity
  8
AM_5
 62
     2
100
AcDbLine
 10
-102.8546068973379
 20
43.47597603632236
 30
0.0
 11
-100.5666735019993
 21
39.51315915126241
 31
0.0
  0
LINE
  5
7DE
330
7DC
100
AcDbEntity
  8
AM_5
 62
     2
100
AcDbLine
 10
-100.5666735019993
 20
39.51315915126241
 30
0.0
 11
-95.53322003225456
 21
48.23135629839431
 31
0.0
  0
LINE
  5
7DF
330
7DC
100
AcDbEntity
  8
AM_5
 62
     2
100
AcDbLine
 10
-95.53322003225456
 20
48.23135629839431
 30
0.0
 11
-87.21130457362866
 21
48.23135629839431
 31
0.0
  0
LINE
  5
7E0
330
7DC
100
AcDbEntity
  8
AM_5
 62
     2
100
AcDbLine
 10
-102.8546068973379
 20
43.47597603632236
 30
0.0
 11
-98.2787401066608
 21
43.47597603632236
 31
0.0
  0
ENDBLK
  5
7E2
330
7DC
100
AcDbEntity
  8
0
100
AcDbBlockEnd
  0
BLOCK
  5
950
330
94A
100
AcDbEntity
  8
0
100
AcDbBlockBegin
  2
*S76
 70
     1
 10
0.0
 20
0.0
 30
0.0
  3
*S76
  1

  0
LINE
  5
94B
330
94A
100
AcDbEntity
  8
AM_5
 62
     3
100
AcDbLine
 10
481.785327926148
 20
296.4197894239222
 30
0.0
 11
401.8415968660251
 21
296.4197894239222
 31
0.0
  0
LINE
  5
94C
330
94A
100
AcDbEntity
  8
AM_5
 62
     3
100
AcDbLine
 10
401.8415968660251
 20
296.4197894239222
 30
0.0
 11
393.2005140633328
 21
296.4197894239222
 31
0.0
  0
LINE
  5
94D
330
94A
100
AcDbEntity
  8
AM_5
 62
     3
100
AcDbLine
 10
393.2005140633328
 20
296.4197894239222
 30
0.0
 11
384.5370019355203
 21
263.9926307611023
 31
0.0
  0
TRACE
  5
94E
330
94A
100
AcDbEntity
  8
AM_5
 62
     3
100
AcDbTrace
 10
384.0918322431769
 20
264.1115660359642
 30
0.0
 11
384.9821716278637
 21
263.8736954862404
 31
0.0
 12
383.6335988283094
 22
260.6112312245373
 32
0.0
 13
383.6335988283094
 23
260.6112312245373
 33
0.0
  0
MTEXT
  5
94F
330
94A
100
AcDbEntity
  8
AM_5
 62
     2
100
AcDbMText
 10
405.3415968660251
 20
298.1697894239222
 30
0.0
 40
3.5
 41
0.0
 71
     7
 72
     5
  1
Wechselflanschtyp\Pist abhängig vom Motoranschlussmaß
  7
ACDINTS
 73
     1
 44
1.0
1001
ACAD
1000
MTEXTBEGIN
1070
    73
1070
     1
1070
    44
1040
1.0
1070
    74
1070
     0
1000
MTEXTEND
  0
ENDBLK
  5
951
330
94A
100
AcDbEntity
  8
0
100
AcDbBlockEnd
  0
ENDSEC
  0
SECTION
  2
ENTITIES
  0
LINE
  5
EC
330
21
100
AcDbEntity
  8
Sichtbare Kanten
  6
Continuous
370
    50
100
AcDbLine
 10
371.8834436335602
 20
229.3626580995488
 30
0.0
 11
353.2389392015568
 21
228.2659225940315
 31
0.0
  0
LINE
  5
ED
330
21
100
AcDbEntity
  8
Sichtbare Kanten
  6
Continuous
370
    50
100
AcDbLine
 10
371.8834436335602
 20
229.3626580995488
 30
0.0
 11
373.501520391545
 21
229.4578390810336
 31
0.0
  0
LINE
  5
EE
330
21
100
AcDbEntity
  8
Sichtbare Kanten
  6
Continuous
370
    50
100
AcDbLine
 10
373.501520391545
 20
229.4578390810336
 30
0.0
 11
383.0368527162451
 21
246.4426490208132
 31
0.0
  0
LINE
  5
EF
330
21
100
AcDbEntity
  8
Sichtbare Kanten
  6
Continuous
370
    50
100
AcDbLine
 10
375.3834436335601
 20
232.810014705168
 30
0.0
 11
375.3834436335601
 21
230.6112312245373
 31
0.0
  0
LINE
  5
F0
330
21
100
AcDbEntity
  8
Sichtbare Kanten
  6
Continuous
370
    50
100
AcDbLine
 10
355.8834436335601
 20
227.3612312245373
 30
0.0
 11
353.5317585644297
 21
223.2879932014022
 31
0.0
  0
LINE
  5
F1
330
21
100
AcDbEntity
  8
Sichtbare Kanten
  6
Continuous
370
    50
100
AcDbLine
 10
357.8834436335601
 20
227.3612312245373
 30
0.0
 11
355.8834436335601
 21
227.3612312245373
 31
0.0
  0
LINE
  5
F2
330
21
100
AcDbEntity
  8
Sichtbare Kanten
  6
Continuous
370
    50
100
AcDbLine
 10
357.8834436335601
 20
227.8612312245373
 30
0.0
 11
357.8834436335601
 21
227.3612312245373
 31
0.0
  0
LINE
  5
F3
330
21
100
AcDbEntity
  8
Sichtbare Kanten
  6
Continuous
370
    50
100
AcDbLine
 10
367.8834436335601
 20
227.8612312245373
 30
0.0
 11
357.8834436335601
 21
227.8612312245373
 31
0.0
  0
LINE
  5
F4
330
21
100
AcDbEntity
  8
Sichtbare Kanten
  6
Continuous
370
    50
100
AcDbLine
 10
368.3164563354524
 20
227.6112312245373
 30
0.0
 11
367.8834436335601
 21
227.8612312245373
 31
0.0
  0
LINE
  5
F5
330
21
100
AcDbEntity
  8
Sichtbare Kanten
  6
Continuous
370
    50
100
AcDbLine
 10
394.3834436335601
 20
227.6112312245373
 30
0.0
 11
368.3164563354524
 21
227.6112312245373
 31
0.0
  0
LINE
  5
F6
330
21
100
AcDbEntity
  8
Sichtbare Kanten
  6
Continuous
370
    50
100
AcDbLine
 10
394.3834436335601
 20
229.6112312245373
 30
0.0
 11
394.3834436335601
 21
227.6112312245373
 31
0.0
  0
LINE
  5
F7
330
21
100
AcDbEntity
  8
Sichtbare Kanten
  6
Continuous
370
    50
100
AcDbLine
 10
392.8834436335601
 20
229.6112312245373
 30
0.0
 11
394.3834436335601
 21
229.6112312245373
 31
0.0
  0
LINE
  5
F8
330
21
100
AcDbEntity
  8
Sichtbare Kanten
  6
Continuous
370
    50
100
AcDbLine
 10
392.8834436335601
 20
239.6352678746039
 30
0.0
 11
392.8834436335601
 21
229.6112312245373
 31
0.0
  0
LINE
  5
F9
330
21
100
AcDbEntity
  8
Sichtbare Kanten
  6
Continuous
370
    50
100
AcDbLine
 10
379.2151648834023
 20
239.6352678746039
 30
0.0
 11
392.8834436335601
 21
239.6352678746039
 31
0.0
  0
LINE
  5
FA
330
21
100
AcDbEntity
  8
Sichtbare Kanten
  6
Continuous
370
    50
100
AcDbLine
 10
376.8834436335601
 20
230.6112312245373
 30
0.0
 11
376.8834436335601
 21
235.4818895850475
 31
0.0
  0
LINE
  5
FB
330
21
100
AcDbEntity
  8
Sichtbare Kanten
  6
Continuous
370
    50
100
AcDbLine
 10
375.3834436335601
 20
230.6112312245373
 30
0.0
 11
376.8834436335601
 21
230.6112312245373
 31
0.0
  0
LINE
  5
FC
330
21
100
AcDbEntity
  8
Sichtbare Kanten
  6
Continuous
370
    50
100
AcDbLine
 10
354.2098799876129
 20
211.7599284890183
 30
0.0
 11
355.8834436335601
 21
208.8612312245373
 31
0.0
  0
LINE
  5
FD
330
21
100
AcDbEntity
  8
Sichtbare Kanten
  6
Continuous
370
    50
100
AcDbLine
 10
375.3834436335601
 20
208.6112312245373
 30
0.0
 11
375.3834436335601
 21
206.3452836272259
 31
0.0
  0
LINE
  5
FE
330
21
100
AcDbEntity
  8
Sichtbare Kanten
  6
Continuous
370
    50
100
AcDbLine
 10
368.3164563354524
 20
208.6112312245373
 30
0.0
 11
375.3834436335601
 21
208.6112312245373
 31
0.0
  0
LINE
  5
FF
330
21
100
AcDbEntity
  8
Sichtbare Kanten
  6
Continuous
370
    50
100
AcDbLine
 10
367.88344363356
 20
208.3612312245373
 30
0.0
 11
368.3164563354524
 21
208.6112312245373
 31
0.0
  0
LINE
  5
100
330
21
100
AcDbEntity
  8
Sichtbare Kanten
  6
Continuous
370
    50
100
AcDbLine
 10
357.8834436335601
 20
208.3612312245373
 30
0.0
 11
367.88344363356
 21
208.3612312245373
 31
0.0
  0
LINE
  5
101
330
21
100
AcDbEntity
  8
Sichtbare Kanten
  6
Continuous
370
    50
100
AcDbLine
 10
357.8834436335601
 20
208.8612312245373
 30
0.0
 11
357.8834436335601
 21
208.3612312245373
 31
0.0
  0
LINE
  5
102
330
21
100
AcDbEntity
  8
Sichtbare Kanten
  6
Continuous
370
    50
100
AcDbLine
 10
355.8834436335601
 20
208.8612312245373
 30
0.0
 11
357.8834436335601
 21
208.8612312245373
 31
0.0
  0
LINE
  5
103
330
21
100
AcDbEntity
  8
Sichtbare Kanten
  6
Continuous
370
    50
100
AcDbLine
 10
399.8834436335602
 20
252.5212183995478
 30
0.0
 11
399.8834436335602
 21
243.7112312245373
 31
0.0
  0
LINE
  5
104
330
21
100
AcDbEntity
  8
Sichtbare Kanten
  6
Continuous
370
    50
100
AcDbLine
 10
395.3834436335602
 20
250.6112312245373
 30
0.0
 11
387.622293346491
 21
250.6112312245373
 31
0.0
  0
LINE
  5
105
330
21
100
AcDbEntity
  8
Sichtbare Kanten
  6
Continuous
370
    50
100
AcDbLine
 10
395.3834436335602
 20
243.2112312245373
 30
0.0
 11
395.3834436335602
 21
250.6112312245373
 31
0.0
  0
LINE
  5
106
330
21
100
AcDbEntity
  8
Sichtbare Kanten
  6
Continuous
370
    50
100
AcDbLine
 10
399.3834436335601
 20
243.2112312245373
 30
0.0
 11
395.3834436335602
 21
243.2112312245373
 31
0.0
  0
LINE
  5
107
330
21
100
AcDbEntity
  8
Sichtbare Kanten
  6
Continuous
370
    50
100
AcDbLine
 10
399.8834436335602
 20
243.7112312245373
 30
0.0
 11
399.3834436335601
 21
243.2112312245373
 31
0.0
  0
LINE
  5
108
330
21
100
AcDbEntity
  8
Sichtbare Kanten
  6
Continuous
370
    50
100
AcDbLine
 10
394.5090494194
 20
256.8719182820814
 30
0.0
 11
389.4014820667891
 21
252.2286754430012
 31
0.0
  0
LINE
  5
109
330
21
100
AcDbEntity
  8
Sichtbare Kanten
  6
Continuous
370
    50
100
AcDbLine
 10
383.0368527162451
 20
246.4426490208132
 30
0.0
 11
389.4014820667891
 21
252.2286754430012
 31
0.0
  0
LINE
  5
10A
330
21
100
AcDbEntity
  8
Sichtbare Kanten
  6
Continuous
370
    50
100
AcDbLine
 10
353.238939201557
 20
228.2659225940315
 30
0.0
 11
354.5438821937195
 21
206.0818907299335
 31
0.0
  0
LINE
  5
10B
330
21
100
AcDbEntity
  8
Sichtbare Kanten
  6
Continuous
370
    50
100
AcDbLine
 10
354.5438821937195
 20
206.0818907299335
 30
0.0
 11
367.4088745906232
 21
206.8386549545528
 31
0.0
  0
LINE
  5
10C
330
21
100
AcDbEntity
  8
Sichtbare Kanten
  6
Continuous
370
    50
100
AcDbLine
 10
367.4088745906232
 20
206.8386549545528
 30
0.0
 11
371.88344363356
 21
206.2828711648943
 31
0.0
  0
LINE
  5
10D
330
21
100
AcDbEntity
  8
Sichtbare Kanten
  6
Continuous
370
    50
100
AcDbLine
 10
373.501520391545
 20
206.0818907299335
 30
0.0
 11
371.8834436335602
 21
206.2828711648942
 31
0.0
  0
LINE
  5
10E
330
21
100
AcDbEntity
  8
Sichtbare Kanten
  6
Continuous
370
    50
100
AcDbLine
 10
386.1656336352874
 20
207.8543527541208
 30
0.0
 11
373.501520391545
 21
206.0818907299335
 31
0.0
  0
LINE
  5
10F
330
21
100
AcDbEntity
  8
Sichtbare Kanten
  6
Continuous
370
    50
100
AcDbLine
 10
399.8834436335602
 20
198.0973193207605
 30
0.0
 11
386.1656336352874
 21
207.8543527541208
 31
0.0
  0
LINE
  5
110
330
21
100
AcDbEntity
  8
Sichtbare Kanten
  6
Continuous
370
    50
100
AcDbLine
 10
399.8834436335601
 20
252.5212183995478
 30
0.0
 11
394.5090494193999
 21
256.8719182820814
 31
0.0
  0
LINE
  5
111
330
21
100
AcDbEntity
  8
Sichtbare Kanten
  6
Continuous
370
    50
100
AcDbLine
 10
371.8834436335602
 20
229.3626580995488
 30
0.0
 11
371.8834436335602
 21
252.2286754430012
 31
0.0
  0
LINE
  5
112
330
21
100
AcDbEntity
  8
Sichtbare Kanten
  6
Continuous
370
    50
100
AcDbLine
 10
371.8834436335602
 20
183.9937870060733
 30
0.0
 11
371.8834436335602
 21
206.2828711648942
 31
0.0
  0
LINE
  5
113
330
21
100
AcDbEntity
  8
Sichtbare Kanten
  6
Continuous
370
    50
100
AcDbLine
 10
399.8834436335602
 20
183.9937870060733
 30
0.0
 11
371.8834436335602
 21
183.9937870060733
 31
0.0
  0
LINE
  5
114
330
21
100
AcDbEntity
  8
Sichtbare Kanten
  6
Continuous
370
    50
100
AcDbLine
 10
399.8834436335602
 20
198.0973193207605
 30
0.0
 11
399.8834436335602
 21
183.9937870060733
 31
0.0
  0
LINE
  5
115
330
21
100
AcDbEntity
  8
Sichtbare Kanten
  6
Continuous
370
    50
100
AcDbLine
 10
371.8834436335602
 20
175.6112312245373
 30
0.0
 11
399.8834436335602
 21
175.6112312245373
 31
0.0
  0
LINE
  5
116
330
21
100
AcDbEntity
  8
Sichtbare Kanten
  6
Continuous
370
    50
100
AcDbLine
 10
399.8834436335602
 20
260.6112312245373
 30
0.0
 11
371.8834436335602
 21
260.6112312245373
 31
0.0
  0
LINE
  5
117
330
21
100
AcDbEntity
  8
Sichtbare Kanten
  6
Continuous
370
    50
100
AcDbLine
 10
371.8834436335602
 20
252.2286754430012
 30
0.0
 11
371.8834436335602
 21
260.6112312245373
 31
0.0
  0
LINE
  5
118
330
21
100
AcDbEntity
  8
Sichtbare Kanten
  6
Continuous
370
    50
100
AcDbLine
 10
395.3834436335602
 20
201.2980234022174
 30
0.0
 11
395.3834436335602
 21
243.2112312245373
 31
0.0
  0
LINE
  5
119
330
21
100
AcDbEntity
  8
Sichtbare Kanten
  6
Continuous
370
    50
100
AcDbLine
 10
371.8834436335602
 20
175.6112312245373
 30
0.0
 11
371.8834436335602
 21
183.9937870060733
 31
0.0
  0
LINE
  5
11A
330
21
100
AcDbEntity
  8
Sichtbare Kanten
  6
Continuous
370
    50
100
AcDbLine
 10
399.8834436335602
 20
175.6112312245372
 30
0.0
 11
399.8834436335602
 21
183.9937870060733
 31
0.0
  0
LINE
  5
11B
330
21
100
AcDbEntity
  8
Sichtbare Kanten
  6
Continuous
370
    50
100
AcDbLine
 10
399.8834436335602
 20
252.5212183995478
 30
0.0
 11
399.8834436335602
 21
260.6112312245373
 31
0.0
  0
LINE
  5
11C
330
21
100
AcDbEntity
  8
Sichtbare Kanten
  6
Continuous
370
    50
100
AcDbLine
 10
399.3834436335601
 20
243.2112312245373
 30
0.0
 11
399.3834436335601
 21
198.4529531075891
 31
0.0
  0
LINE
  5
11D
330
21
100
AcDbEntity
  8
Sichtbare Kanten
  6
Continuous
370
    50
100
AcDbLine
 10
399.8834436335602
 20
198.0973193207605
 30
0.0
 11
399.8834436335602
 21
243.7112312245373
 31
0.0
  0
LINE
  5
11E
330
21
100
AcDbEntity
  8
Sichtbare Kanten
  6
Continuous
370
    50
100
AcDbLine
 10
394.3834436335601
 20
206.7094769735459
 30
0.0
 11
392.8834436335601
 21
206.7094769735459
 31
0.0
  0
LINE
  5
11F
330
21
100
AcDbEntity
  8
Sichtbare Kanten
  6
Continuous
370
    50
100
AcDbLine
 10
394.3834436335601
 20
208.7303997048905
 30
0.0
 11
394.3834436335601
 21
206.7094769735459
 31
0.0
  0
LINE
  5
120
330
21
100
AcDbEntity
  8
Sichtbare Kanten
  6
Continuous
370
    50
100
AcDbLine
 10
392.8834436335601
 20
206.7094769735459
 30
0.0
 11
392.8834436335601
 21
203.0761923363602
 31
0.0
  0
LINE
  5
121
330
21
100
AcDbEntity
  8
Sichtbare Kanten
  6
Continuous
370
    50
100
AcDbLine
 10
375.3834436335601
 20
208.7303997048905
 30
0.0
 11
394.3834436335601
 21
208.7303997048905
 31
0.0
  0
LINE
  5
122
330
21
100
AcDbEntity
  8
Sichtbare Kanten
  6
Continuous
370
    50
100
AcDbLine
 10
394.3834436335601
 20
208.7303997048904
 30
0.0
 11
394.3834436335601
 21
227.6112312245373
 31
0.0
  0
LINE
  5
123
330
21
100
AcDbEntity
  8
Sichtbare Kanten
  6
Continuous
370
    50
100
AcDbLine
 10
355.8834436335601
 20
208.8612312245373
 30
0.0
 11
355.8834436335601
 21
227.3612312245373
 31
0.0
  0
LINE
  5
124
330
21
100
AcDbEntity
  8
Sichtbare Kanten
  6
Continuous
370
    50
100
AcDbLine
 10
357.8834436335601
 20
208.8612312245373
 30
0.0
 11
357.8834436335601
 21
227.3612312245373
 31
0.0
  0
LINE
  5
125
330
21
100
AcDbEntity
  8
Sichtbare Kanten
  6
Continuous
370
    50
100
AcDbLine
 10
375.3834436335601
 20
208.6112312245373
 30
0.0
 11
375.3834436335601
 21
208.7303997048904
 31
0.0
  0
LINE
  5
126
330
21
100
AcDbEntity
  8
Sichtbare Kanten
  6
Continuous
370
    50
100
AcDbLine
 10
367.8834436335601
 20
208.3612312245373
 30
0.0
 11
367.8834436335601
 21
227.8612312245373
 31
0.0
  0
LINE
  5
127
330
21
100
AcDbEntity
  8
Sichtbare Kanten
  6
Continuous
370
    50
100
AcDbLine
 10
368.3164563354524
 20
208.6112312245373
 30
0.0
 11
368.3164563354524
 21
227.6112312245373
 31
0.0
  0
LINE
  5
128
330
21
100
AcDbEntity
  8
Sichtbare Kanten
  6
Continuous
370
    50
100
AcDbLine
 10
256.8834436335601
 20
175.6112312245373
 30
0.0
 11
256.8834436335601
 21
260.6112312245373
 31
0.0
  0
LINE
  5
129
330
21
100
AcDbEntity
  8
Sichtbare Kanten
  6
Continuous
370
    50
100
AcDbLine
 10
247.8834436335601
 20
205.6112312245373
 30
0.0
 11
247.8834436335601
 21
230.6112312245373
 31
0.0
  0
LINE
  5
12A
330
21
100
AcDbEntity
  8
Sichtbare Kanten
  6
Continuous
370
    50
100
AcDbLine
 10
208.5834436335601
 20
228.1112312245373
 30
0.0
 11
210.8834436335601
 21
228.1112312245373
 31
0.0
  0
LINE
  5
12B
330
21
100
AcDbEntity
  8
Sichtbare Kanten
  6
Continuous
370
    50
100
AcDbLine
 10
242.8834436335601
 20
228.1112312245373
 30
0.0
 11
247.8834436335601
 21
228.1112312245373
 31
0.0
  0
LINE
  5
12C
330
21
100
AcDbEntity
  8
Sichtbare Kanten
  6
Continuous
370
    50
100
AcDbLine
 10
208.5834436335601
 20
208.1112312245373
 30
0.0
 11
247.8834436335601
 21
208.1112312245373
 31
0.0
  0
LINE
  5
12D
330
21
100
AcDbEntity
  8
Sichtbare Kanten
  6
Continuous
370
    50
100
AcDbLine
 10
249.5834436335601
 20
245.6112312245373
 30
0.0
 11
256.8834436335601
 21
245.6112312245373
 31
0.0
  0
LINE
  5
12E
330
21
100
AcDbEntity
  8
Sichtbare Kanten
  6
Continuous
370
    50
100
AcDbLine
 10
249.5834436335601
 20
190.6112312245373
 30
0.0
 11
256.8834436335601
 21
190.6112312245373
 31
0.0
  0
LINE
  5
12F
330
21
100
AcDbEntity
  8
Sichtbare Kanten
  6
Continuous
370
    50
100
AcDbLine
 10
256.8834436335601
 20
260.6112312245373
 30
0.0
 11
371.8834436335601
 21
260.6112312245373
 31
0.0
  0
LINE
  5
130
330
21
100
AcDbEntity
  8
Sichtbare Kanten
  6
Continuous
370
    50
100
AcDbLine
 10
256.8834436335601
 20
175.6112312245373
 30
0.0
 11
371.8834436335602
 21
175.6112312245373
 31
0.0
  0
LINE
  5
131
330
21
100
AcDbEntity
  8
Sichtbare Kanten
  6
Continuous
370
    50
100
AcDbLine
 10
247.8834436335601
 20
230.6112312245373
 30
0.0
 11
248.8834436335601
 21
230.6112312245373
 31
0.0
  0
LINE
  5
132
330
21
100
AcDbEntity
  8
Sichtbare Kanten
  6
Continuous
370
    50
100
AcDbLine
 10
247.8834436335601
 20
205.6112312245373
 30
0.0
 11
248.8834436335601
 21
205.6112312245373
 31
0.0
  0
CIRCLE
  5
133
330
21
100
AcDbEntity
  8
Sichtbare Kanten
  6
Continuous
370
    50
100
AcDbCircle
 10
385.3834436335602
 20
199.1112312245373
 30
0.0
 40
4.9264625
  0
LINE
  5
134
330
21
100
AcDbEntity
  8
Sichtbare Kanten
  6
Continuous
370
    50
100
AcDbLine
 10
388.3834436335602
 20
200.8432820321062
 30
0.0
 11
388.3834436335602
 21
197.3791804169685
 31
0.0
  0
LINE
  5
135
330
21
100
AcDbEntity
  8
Sichtbare Kanten
  6
Continuous
370
    50
100
AcDbLine
 10
388.3834436335602
 20
197.3791804169685
 30
0.0
 11
385.3834436335602
 21
195.6471296093996
 31
0.0
  0
LINE
  5
136
330
21
100
AcDbEntity
  8
Sichtbare Kanten
  6
Continuous
370
    50
100
AcDbLine
 10
385.3834436335602
 20
195.6471296093996
 30
0.0
 11
382.3834436335602
 21
197.3791804169684
 31
0.0
  0
LINE
  5
137
330
21
100
AcDbEntity
  8
Sichtbare Kanten
  6
Continuous
370
    50
100
AcDbLine
 10
382.3834436335602
 20
197.3791804169684
 30
0.0
 11
382.3834436335601
 21
200.8432820321061
 31
0.0
  0
LINE
  5
138
330
21
100
AcDbEntity
  8
Sichtbare Kanten
  6
Continuous
370
    50
100
AcDbLine
 10
382.3834436335601
 20
200.8432820321061
 30
0.0
 11
385.3834436335601
 21
202.5753328396751
 31
0.0
  0
LINE
  5
139
330
21
100
AcDbEntity
  8
Sichtbare Kanten
  6
Continuous
370
    50
100
AcDbLine
 10
385.3834436335601
 20
202.5753328396751
 30
0.0
 11
388.3834436335602
 21
200.8432820321062
 31
0.0
  0
LINE
  5
13A
330
21
100
AcDbEntity
  8
AM_3
100
AcDbLine
 10
210.6547249256703
 20
214.9112312245373
 30
0.0
 11
210.6547249256703
 21
221.3112312245373
 31
0.0
  0
LINE
  5
13B
330
21
100
AcDbEntity
  8
AM_3
100
AcDbLine
 10
212.8834436335601
 20
221.3112312245373
 30
0.0
 11
212.8834436335601
 21
214.9112312245373
 31
0.0
  0
LINE
  5
13C
330
21
100
AcDbEntity
  8
AM_3
100
AcDbLine
 10
210.6547249256703
 20
221.3112312245373
 30
0.0
 11
212.8834436335601
 21
221.3112312245373
 31
0.0
  0
LINE
  5
13D
330
21
100
AcDbEntity
  8
AM_3
100
AcDbLine
 10
210.6547249256703
 20
214.9112312245373
 30
0.0
 11
212.8834436335601
 21
214.9112312245373
 31
0.0
  0
LINE
  5
13E
330
21
100
AcDbEntity
  8
AM_3
100
AcDbLine
 10
228.8834436335601
 20
220.5697312245373
 30
0.0
 11
228.8834436335601
 21
215.6527312245373
 31
0.0
  0
LINE
  5
13F
330
21
100
AcDbEntity
  8
AM_3
100
AcDbLine
 10
230.3606594654393
 20
218.1112312245373
 30
0.0
 11
228.8834436335601
 21
215.6527312245373
 31
0.0
  0
LINE
  5
140
330
21
100
AcDbEntity
  8
AM_3
100
AcDbLine
 10
230.3606594654393
 20
218.1112312245373
 30
0.0
 11
228.8834436335601
 21
220.5697312245373
 31
0.0
  0
LINE
  5
141
330
21
100
AcDbEntity
  8
AM_3
100
AcDbLine
 10
210.6547249256703
 20
214.9112312245373
 30
0.0
 11
207.8834436335601
 21
213.3112312245373
 31
0.0
  0
LINE
  5
142
330
21
100
AcDbEntity
  8
AM_3
100
AcDbLine
 10
210.6547249256703
 20
221.3112312245373
 30
0.0
 11
207.8834436335601
 21
222.9112312245373
 31
0.0
  0
LINE
  5
143
330
21
100
AcDbEntity
  8
AM_3
100
AcDbLine
 10
228.8834436335601
 20
215.6527312245373
 30
0.0
 11
212.8834436335601
 21
215.6527312245373
 31
0.0
  0
LINE
  5
144
330
21
100
AcDbEntity
  8
AM_3
100
AcDbLine
 10
228.8834436335601
 20
220.5697312245373
 30
0.0
 11
212.8834436335601
 21
220.5697312245373
 31
0.0
  0
LINE
  5
145
330
21
100
AcDbEntity
  8
AM_3
100
AcDbLine
 10
212.8834436335601
 20
215.1112312245373
 30
0.0
 11
223.8834436335601
 21
215.1112312245373
 31
0.0
  0
LINE
  5
146
330
21
100
AcDbEntity
  8
AM_3
100
AcDbLine
 10
223.8834436335601
 20
221.1112312245373
 30
0.0
 11
212.8834436335601
 21
221.1112312245373
 31
0.0
  0
LINE
  5
147
330
21
100
AcDbEntity
  8
AM_3
100
AcDbLine
 10
223.8834436335601
 20
215.1112312245373
 30
0.0
 11
223.8834436335601
 21
221.1112312245373
 31
0.0
  0
POLYLINE
  5
148
330
21
100
AcDbEntity
  8
Sichtbare Kanten
  6
Continuous
370
    50
100
AcDb2dPolyline
 66
     1
 10
0.0
 20
0.0
 30
0.0
  0
VERTEX
  5
149
330
148
100
AcDbEntity
  8
Sichtbare Kanten
  6
Continuous
370
    50
100
AcDbVertex
100
AcDb2dVertex
 10
242.8834436335601
 20
228.1112312245373
 30
0.0
  0
VERTEX
  5
14A
330
148
100
AcDbEntity
  8
Sichtbare Kanten
  6
Continuous
370
    50
100
AcDbVertex
100
AcDb2dVertex
 10
242.8770826258697
 20
228.1092767882351
 30
0.0
  0
VERTEX
  5
14C
330
148
100
AcDbEntity
  8
Sichtbare Kanten
  6
Continuous
370
    50
100
AcDbVertex
100
AcDb2dVertex
 10
242.8579829134978
 20
228.1034999060635
 30
0.0
  0
VERTEX
  5
14D
330
148
100
AcDbEntity
  8
Sichtbare Kanten
  6
Continuous
370
    50
100
AcDbVertex
100
AcDb2dVertex
 10
242.8261182704009
 20
228.0940275359156
 30
0.0
  0
VERTEX
  5
14E
330
148
100
AcDbEntity
  8
Sichtbare Kanten
  6
Continuous
370
    50
100
AcDbVertex
100
AcDb2dVertex
 10
242.781464854721
 20
228.0809878277783
 30
0.0
  0
VERTEX
  5
14F
330
148
100
AcDbEntity
  8
Sichtbare Kanten
  6
Continuous
370
    50
100
AcDbVertex
100
AcDb2dVertex
 10
242.7239916720428
 20
228.0645089316372
 30
0.0
  0
VERTEX
  5
150
330
148
100
AcDbEntity
  8
Sichtbare Kanten
  6
Continuous
370
    50
100
AcDbVertex
100
AcDb2dVertex
 10
242.6536724963225
 20
228.0447189974789
 30
0.0
  0
VERTEX
  5
151
330
148
100
AcDbEntity
  8
Sichtbare Kanten
  6
Continuous
370
    50
100
AcDbVertex
100
AcDb2dVertex
 10
242.5706980624236
 20
228.0219154524807
 30
0.0
  0
VERTEX
  5
152
330
148
100
AcDbEntity
  8
Sichtbare Kanten
  6
Continuous
370
    50
100
AcDbVertex
100
AcDb2dVertex
 10
242.4760601916351
 20
227.9967044758801
 30
0.0
  0
VERTEX
  5
153
330
148
100
AcDbEntity
  8
Sichtbare Kanten
  6
Continuous
370
    50
100
AcDbVertex
100
AcDb2dVertex
 10
242.3709390559234
 20
227.9696767497067
 30
0.0
  0
VERTEX
  5
154
330
148
100
AcDbEntity
  8
Sichtbare Kanten
  6
Continuous
370
    50
100
AcDbVertex
100
AcDb2dVertex
 10
242.2565219798126
 20
227.9414211678509
 30
0.0
  0
VERTEX
  5
155
330
148
100
AcDbEntity
  8
Sichtbare Kanten
  6
Continuous
370
    50
100
AcDbVertex
100
AcDb2dVertex
 10
242.1339891352691
 20
227.9125290083889
 30
0.0
  0
VERTEX
  5
156
330
148
100
AcDbEntity
  8
Sichtbare Kanten
  6
Continuous
370
    50
100
AcDbVertex
100
AcDb2dVertex
 10
242.0045278468169
 20
227.8835897612576
 30
0.0
  0
VERTEX
  5
157
330
148
100
AcDbEntity
  8
Sichtbare Kanten
  6
Continuous
370
    50
100
AcDbVertex
100
AcDb2dVertex
 10
241.8662689127959
 20
227.8545521664623
 30
0.0
  0
VERTEX
  5
158
330
148
100
AcDbEntity
  8
Sichtbare Kanten
  6
Continuous
370
    50
100
AcDbVertex
100
AcDb2dVertex
 10
241.7172716059722
 20
227.8253882098202
 30
0.0
  0
VERTEX
  5
159
330
148
100
AcDbEntity
  8
Sichtbare Kanten
  6
Continuous
370
    50
100
AcDbVertex
100
AcDb2dVertex
 10
241.5585682787932
 20
227.796715395451
 30
0.0
  0
VERTEX
  5
15A
330
148
100
AcDbEntity
  8
Sichtbare Kanten
  6
Continuous
370
    50
100
AcDbVertex
100
AcDb2dVertex
 10
241.3911936678924
 20
227.7691518235211
 30
0.0
  0
VERTEX
  5
15B
330
148
100
AcDbEntity
  8
Sichtbare Kanten
  6
Continuous
370
    50
100
AcDbVertex
100
AcDb2dVertex
 10
241.2161825099029
 20
227.7433161902432
 30
0.0
  0
VERTEX
  5
15C
330
148
100
AcDbEntity
  8
Sichtbare Kanten
  6
Continuous
370
    50
100
AcDbVertex
100
AcDb2dVertex
 10
241.034569541458
 20
227.7198259997372
 30
0.0
  0
VERTEX
  5
15D
330
148
100
AcDbEntity
  8
Sichtbare Kanten
  6
Continuous
370
    50
100
AcDbVertex
100
AcDb2dVertex
 10
240.8474634089507
 20
227.6993446516994
 30
0.0
  0
VERTEX
  5
15E
330
148
100
AcDbEntity
  8
Sichtbare Kanten
  6
Continuous
370
    50
100
AcDbVertex
100
AcDb2dVertex
 10
240.6563399233855
 20
227.6822297739987
 30
0.0
  0
VERTEX
  5
15F
330
148
100
AcDbEntity
  8
Sichtbare Kanten
  6
Continuous
370
    50
100
AcDbVertex
100
AcDb2dVertex
 10
240.4627869524993
 20
227.6686411070826
 30
0.0
  0
VERTEX
  5
160
330
148
100
AcDbEntity
  8
Sichtbare Kanten
  6
Continuous
370
    50
100
AcDbVertex
100
AcDb2dVertex
 10
240.2683947482146
 20
227.6587371993069
 30
0.0
  0
VERTEX
  5
161
330
148
100
AcDbEntity
  8
Sichtbare Kanten
  6
Continuous
370
    50
100
AcDbVertex
100
AcDb2dVertex
 10
240.0747511782683
 20
227.6526783871655
 30
0.0
  0
VERTEX
  5
162
330
148
100
AcDbEntity
  8
Sichtbare Kanten
  6
Continuous
370
    50
100
AcDbVertex
100
AcDb2dVertex
 10
239.8834441103972
 20
227.6506232190136
 30
0.0
  0
SEQEND
  5
14B
330
148
100
AcDbEntity
  8
Sichtbare Kanten
  6
Continuous
370
    50
  0
LINE
  5
163
330
21
100
AcDbEntity
  8
Sichtbare Kanten
  6
Continuous
370
    50
100
AcDbLine
 10
239.8834436335601
 20
230.6112312245373
 30
0.0
 11
242.8834436335601
 21
230.6112312245373
 31
0.0
  0
LINE
  5
164
330
21
100
AcDbEntity
  8
Sichtbare Kanten
  6
Continuous
370
    50
100
AcDbLine
 10
239.8834436335601
 20
227.6506232387068
 30
0.0
 11
213.8834436335601
 21
227.6506232387068
 31
0.0
  0
LINE
  5
165
330
21
100
AcDbEntity
  8
Sichtbare Kanten
  6
Continuous
370
    50
100
AcDbLine
 10
239.8834436335601
 20
230.6112312245373
 30
0.0
 11
213.8834436335601
 21
230.6112312245373
 31
0.0
  0
POLYLINE
  5
166
330
21
100
AcDbEntity
  8
Sichtbare Kanten
  6
Continuous
370
    50
100
AcDb2dPolyline
 66
     1
 10
0.0
 20
0.0
 30
0.0
  0
VERTEX
  5
167
330
166
100
AcDbEntity
  8
Sichtbare Kanten
  6
Continuous
370
    50
100
AcDbVertex
100
AcDb2dVertex
 10
213.8834438719787
 20
227.6506232190136
 30
0.0
  0
VERTEX
  5
168
330
166
100
AcDbEntity
  8
Sichtbare Kanten
  6
Continuous
370
    50
100
AcDbVertex
100
AcDb2dVertex
 10
213.6921356120147
 20
227.6526783871655
 30
0.0
  0
VERTEX
  5
16A
330
166
100
AcDbEntity
  8
Sichtbare Kanten
  6
Continuous
370
    50
100
AcDbVertex
100
AcDb2dVertex
 10
213.4984920420684
 20
227.6587371993069
 30
0.0
  0
VERTEX
  5
16B
330
166
100
AcDbEntity
  8
Sichtbare Kanten
  6
Continuous
370
    50
100
AcDbVertex
100
AcDb2dVertex
 10
213.3040998377837
 20
227.6686411070826
 30
0.0
  0
VERTEX
  5
16C
330
166
100
AcDbEntity
  8
Sichtbare Kanten
  6
Continuous
370
    50
100
AcDbVertex
100
AcDb2dVertex
 10
213.1105480589904
 20
227.6822297739987
 30
0.0
  0
VERTEX
  5
16D
330
166
100
AcDbEntity
  8
Sichtbare Kanten
  6
Continuous
370
    50
100
AcDbVertex
100
AcDb2dVertex
 10
212.9194239773787
 20
227.6993446516994
 30
0.0
  0
VERTEX
  5
16E
330
166
100
AcDbEntity
  8
Sichtbare Kanten
  6
Continuous
370
    50
100
AcDbVertex
100
AcDb2dVertex
 10
212.7323169508017
 20
227.7198259997372
 30
0.0
  0
VERTEX
  5
16F
330
166
100
AcDbEntity
  8
Sichtbare Kanten
  6
Continuous
370
    50
100
AcDbVertex
100
AcDb2dVertex
 10
212.550703982357
 20
227.7433161902432
 30
0.0
  0
VERTEX
  5
170
330
166
100
AcDbEntity
  8
Sichtbare Kanten
  6
Continuous
370
    50
100
AcDbVertex
100
AcDb2dVertex
 10
212.3756934204139
 20
227.7691518235211
 30
0.0
  0
VERTEX
  5
171
330
166
100
AcDbEntity
  8
Sichtbare Kanten
  6
Continuous
370
    50
100
AcDbVertex
100
AcDb2dVertex
 10
212.2083194055595
 20
227.796715395451
 30
0.0
  0
VERTEX
  5
172
330
166
100
AcDbEntity
  8
Sichtbare Kanten
  6
Continuous
370
    50
100
AcDbVertex
100
AcDb2dVertex
 10
212.0496163764037
 20
227.8253882098202
 30
0.0
  0
VERTEX
  5
173
330
166
100
AcDbEntity
  8
Sichtbare Kanten
  6
Continuous
370
    50
100
AcDbVertex
100
AcDb2dVertex
 10
211.9006184735336
 20
227.8545521664623
 30
0.0
  0
VERTEX
  5
174
330
166
100
AcDbEntity
  8
Sichtbare Kanten
  6
Continuous
370
    50
100
AcDbVertex
100
AcDb2dVertex
 10
211.762360135559
 20
227.8835897612576
 30
0.0
  0
VERTEX
  5
175
330
166
100
AcDbEntity
  8
Sichtbare Kanten
  6
Continuous
370
    50
100
AcDbVertex
100
AcDb2dVertex
 10
211.6328979530372
 20
227.9125290083889
 30
0.0
  0
VERTEX
  5
176
330
166
100
AcDbEntity
  8
Sichtbare Kanten
  6
Continuous
370
    50
100
AcDbVertex
100
AcDb2dVertex
 10
211.5103660025634
 20
227.9414211678509
 30
0.0
  0
VERTEX
  5
177
330
166
100
AcDbEntity
  8
Sichtbare Kanten
  6
Continuous
370
    50
100
AcDbVertex
100
AcDb2dVertex
 10
211.3959480323829
 20
227.9696767497067
 30
0.0
  0
VERTEX
  5
178
330
166
100
AcDbEntity
  8
Sichtbare Kanten
  6
Continuous
370
    50
100
AcDbVertex
100
AcDb2dVertex
 10
211.2908274927177
 20
227.9967044758801
 30
0.0
  0
VERTEX
  5
179
330
166
100
AcDbEntity
  8
Sichtbare Kanten
  6
Continuous
370
    50
100
AcDbVertex
100
AcDb2dVertex
 10
211.196188131813
 20
228.0219154524807
 30
0.0
  0
VERTEX
  5
17A
330
166
100
AcDbEntity
  8
Sichtbare Kanten
  6
Continuous
370
    50
100
AcDbVertex
100
AcDb2dVertex
 10
211.113213697914
 20
228.0447189974789
 30
0.0
  0
VERTEX
  5
17B
330
166
100
AcDbEntity
  8
Sichtbare Kanten
  6
Continuous
370
    50
100
AcDbVertex
100
AcDb2dVertex
 10
211.0428966083564
 20
228.0645089316372
 30
0.0
  0
VERTEX
  5
17C
330
166
100
AcDbEntity
  8
Sichtbare Kanten
  6
Continuous
370
    50
100
AcDbVertex
100
AcDb2dVertex
 10
210.9854234256782
 20
228.0809878277783
 30
0.0
  0
VERTEX
  5
17D
330
166
100
AcDbEntity
  8
Sichtbare Kanten
  6
Continuous
370
    50
100
AcDbVertex
100
AcDb2dVertex
 10
210.9407679238357
 20
228.0940275359156
 30
0.0
  0
VERTEX
  5
17E
330
166
100
AcDbEntity
  8
Sichtbare Kanten
  6
Continuous
370
    50
100
AcDbVertex
100
AcDb2dVertex
 10
210.9089035787619
 20
228.1034999060635
 30
0.0
  0
VERTEX
  5
17F
330
166
100
AcDbEntity
  8
Sichtbare Kanten
  6
Continuous
370
    50
100
AcDbVertex
100
AcDb2dVertex
 10
210.8898041644134
 20
228.1092767882351
 30
0.0
  0
VERTEX
  5
180
330
166
100
AcDbEntity
  8
Sichtbare Kanten
  6
Continuous
370
    50
100
AcDbVertex
100
AcDb2dVertex
 10
210.8834437527694
 20
228.1112312245373
 30
0.0
  0
SEQEND
  5
169
330
166
100
AcDbEntity
  8
Sichtbare Kanten
  6
Continuous
370
    50
  0
LINE
  5
181
330
21
100
AcDbEntity
  8
Sichtbare Kanten
  6
Continuous
370
    50
100
AcDbLine
 10
210.8834436335601
 20
230.6112312245373
 30
0.0
 11
213.8834436335601
 21
230.6112312245373
 31
0.0
  0
LINE
  5
182
330
21
100
AcDbEntity
  8
Sichtbare Kanten
  6
Continuous
370
    50
100
AcDbLine
 10
242.8834436335601
 20
230.6112312245373
 30
0.0
 11
242.8834436335601
 21
228.1112312245373
 31
0.0
  0
LINE
  5
183
330
21
100
AcDbEntity
  8
Sichtbare Kanten
  6
Continuous
370
    50
100
AcDbLine
 10
210.8834436335601
 20
230.6112312245373
 30
0.0
 11
210.8834436335601
 21
228.1112312245373
 31
0.0
  0
LINE
  5
184
330
21
100
AcDbEntity
  8
Sichtbare Kanten
  6
Continuous
370
    50
100
AcDbLine
 10
207.8834436335601
 20
208.51537641297
 30
0.0
 11
207.8834436335601
 21
227.7070860361046
 31
0.0
  0
LINE
  5
185
330
21
100
AcDbEntity
  8
Sichtbare Kanten
  6
Continuous
370
    50
100
AcDbLine
 10
208.5834436335601
 20
228.1112312245373
 30
0.0
 11
208.5834436335601
 21
208.1112312245373
 31
0.0
  0
LINE
  5
186
330
21
100
AcDbEntity
  8
Sichtbare Kanten
  6
Continuous
370
    50
100
AcDbLine
 10
207.8834436335601
 20
227.7070860361046
 30
0.0
 11
208.5834436335601
 21
228.1112312245373
 31
0.0
  0
LINE
  5
187
330
21
100
AcDbEntity
  8
Sichtbare Kanten
  6
Continuous
370
    50
100
AcDbLine
 10
207.8834436335601
 20
208.51537641297
 30
0.0
 11
208.5834436335601
 21
208.1112312245373
 31
0.0
  0
LINE
  5
188
330
21
100
AcDbEntity
  8
Sichtbare Kanten
  6
Continuous
370
    50
100
AcDbLine
 10
248.8834436335601
 20
191.01537641297
 30
0.0
 11
248.8834436335601
 21
245.2070860361045
 31
0.0
  0
LINE
  5
189
330
21
100
AcDbEntity
  8
Sichtbare Kanten
  6
Continuous
370
    50
100
AcDbLine
 10
249.5834436335601
 20
245.6112312245373
 30
0.0
 11
249.5834436335601
 21
190.6112312245373
 31
0.0
  0
LINE
  5
18A
330
21
100
AcDbEntity
  8
Sichtbare Kanten
  6
Continuous
370
    50
100
AcDbLine
 10
248.8834436335601
 20
245.2070860361045
 30
0.0
 11
249.5834436335601
 21
245.6112312245373
 31
0.0
  0
LINE
  5
18B
330
21
100
AcDbEntity
  8
Sichtbare Kanten
  6
Continuous
370
    50
100
AcDbLine
 10
248.8834436335601
 20
191.01537641297
 30
0.0
 11
249.5834436335601
 21
190.6112312245373
 31
0.0
  0
HATCH
  5
1AF
330
21
100
AcDbEntity
  8
AM_8
100
AcDbHatch
 10
0.0
 20
0.0
 30
0.0
210
0.0
220
0.0
230
1.0
  2
ANSI31
 70
     0
 71
     0
 91
        3
 92
        1
 93
       11
 72
     1
 10
354.2098799876129
 20
211.7599284890183
 11
355.8834436335602
 21
208.8612312245373
 72
     1
 10
355.8834436335601
 20
208.8612312245373
 11
357.8834436335601
 21
208.8612312245373
 72
     1
 10
357.8834436335601
 20
208.8612312245373
 11
357.8834436335601
 21
208.3612312245373
 72
     1
 10
357.8834436335601
 20
208.3612312245373
 11
367.88344363356
 21
208.3612312245373
 72
     1
 10
367.88344363356
 20
208.3612312245373
 11
368.3164563354524
 21
208.6112312245373
 72
     1
 10
368.3164563354524
 20
208.6112312245373
 11
375.3834436335602
 21
208.6112312245373
 72
     1
 10
375.3834436335601
 20
208.6112312245373
 11
375.3834436335601
 21
206.3452836272259
 72
     1
 10
375.3834436335601
 20
206.3452836272259
 11
373.501520391545
 21
206.0818907299335
 72
     1
 10
373.501520391545
 20
206.0818907299335
 11
367.4088745906233
 21
206.8386549545528
 72
     1
 10
367.4088745906232
 20
206.8386549545528
 11
354.5438821937195
 21
206.0818907299335
 72
     1
 10
354.5438821937196
 20
206.0818907299335
 11
354.2098799876129
 21
211.7599284890183
 97
        0
 92
        1
 93
       17
 72
     1
 10
375.3834436335601
 20
232.810014705168
 11
375.3834436335601
 21
230.6112312245373
 72
     1
 10
375.3834436335601
 20
230.6112312245373
 11
376.8834436335601
 21
230.6112312245373
 72
     1
 10
376.8834436335601
 20
230.6112312245373
 11
376.8834436335601
 21
235.4818895850475
 72
     1
 10
376.8834436335601
 20
235.4818895850475
 11
379.2151648834023
 21
239.6352678746039
 72
     1
 10
379.2151648834023
 20
239.6352678746039
 11
392.8834436335602
 21
239.6352678746039
 72
     1
 10
392.8834436335601
 20
239.6352678746039
 11
392.8834436335601
 21
229.6112312245373
 72
     1
 10
392.8834436335601
 20
229.6112312245373
 11
394.3834436335601
 21
229.6112312245373
 72
     1
 10
394.3834436335601
 20
229.6112312245373
 11
394.3834436335601
 21
227.6112312245373
 72
     1
 10
394.3834436335601
 20
227.6112312245373
 11
368.3164563354524
 21
227.6112312245373
 72
     1
 10
368.3164563354524
 20
227.6112312245373
 11
367.8834436335601
 21
227.8612312245373
 72
     1
 10
367.8834436335601
 20
227.8612312245373
 11
357.8834436335601
 21
227.8612312245373
 72
     1
 10
357.8834436335601
 20
227.8612312245373
 11
357.8834436335601
 21
227.3612312245373
 72
     1
 10
357.8834436335601
 20
227.3612312245373
 11
355.8834436335601
 21
227.3612312245373
 72
     1
 10
355.8834436335601
 20
227.3612312245373
 11
353.5317585644297
 21
223.2879932014022
 72
     1
 10
353.5317585644297
 20
223.2879932014022
 11
353.238939201557
 21
228.2659225940315
 72
     1
 10
353.238939201557
 20
228.2659225940315
 11
373.501520391545
 21
229.4578390810336
 72
     1
 10
373.501520391545
 20
229.4578390810336
 11
375.3834436335601
 21
232.810014705168
 97
        0
 92
        1
 93
        7
 72
     1
 10
399.8834436335602
 20
252.5212183995478
 11
399.8834436335602
 21
243.7112312245373
 72
     1
 10
399.8834436335602
 20
243.7112312245373
 11
399.3834436335602
 21
243.2112312245373
 72
     1
 10
399.3834436335601
 20
243.2112312245373
 11
395.3834436335601
 21
243.2112312245373
 72
     1
 10
395.3834436335602
 20
243.2112312245373
 11
395.3834436335602
 21
250.6112312245373
 72
     1
 10
395.3834436335602
 20
250.6112312245373
 11
387.622293346491
 21
250.6112312245373
 72
     1
 10
387.622293346491
 20
250.6112312245373
 11
394.5090494194
 21
256.8719182820813
 72
     1
 10
394.5090494194001
 20
256.8719182820814
 11
399.8834436335602
 21
252.5212183995478
 97
        0
 75
     0
 76
     1
 52
0.0
 41
25.4
 77
     0
 78
     1
 53
45.0
 43
0.0
 44
0.0
 45
-2.245064030267287
 46
2.245064030267287
 79
     0
 98
        1
 10
0.0
 20
0.0
  0
LINE
  5
1B0
330
21
100
AcDbEntity
  8
Sichtbare Kanten
  6
Continuous
370
    50
100
AcDbLine
 10
464.9035279216086
 20
218.1112312245373
 30
0.0
 11
464.9035279216086
 21
183.9937870060733
 31
0.0
  0
LINE
  5
1B1
330
21
100
AcDbEntity
  8
Sichtbare Kanten
  6
Continuous
370
    50
100
AcDbLine
 10
473.2860837031447
 20
175.6112312245373
 30
0.0
 11
507.4035279216086
 21
175.6112312245373
 31
0.0
  0
LINE
  5
1B2
330
21
100
AcDbEntity
  8
Sichtbare Kanten
  6
Continuous
370
    50
100
AcDbLine
 10
507.4035279216086
 20
260.6112312245373
 30
0.0
 11
473.2860837031447
 21
260.6112312245373
 31
0.0
  0
LINE
  5
1B3
330
21
100
AcDbEntity
  8
Sichtbare Kanten
  6
Continuous
370
    50
100
AcDbLine
 10
464.9035279216086
 20
252.2286754430012
 30
0.0
 11
464.9035279216086
 21
218.1112312245373
 31
0.0
  0
LINE
  5
1B4
330
21
100
AcDbEntity
  8
Sichtbare Kanten
  6
Continuous
370
    50
100
AcDbLine
 10
549.9035279216086
 20
218.1112312245373
 30
0.0
 11
549.9035279216086
 21
252.2286754430012
 31
0.0
  0
LINE
  5
1B5
330
21
100
AcDbEntity
  8
Sichtbare Kanten
  6
Continuous
370
    50
100
AcDbLine
 10
541.5209721400724
 20
260.6112312245373
 30
0.0
 11
507.4035279216086
 21
260.6112312245373
 31
0.0
  0
LINE
  5
1B6
330
21
100
AcDbEntity
  8
Sichtbare Kanten
  6
Continuous
370
    50
100
AcDbLine
 10
507.4035279216086
 20
175.6112312245373
 30
0.0
 11
541.5209721400724
 21
175.6112312245373
 31
0.0
  0
LINE
  5
1B7
330
21
100
AcDbEntity
  8
Sichtbare Kanten
  6
Continuous
370
    50
100
AcDbLine
 10
549.9035279216086
 20
183.9937870060733
 30
0.0
 11
549.9035279216086
 21
218.1112312245373
 31
0.0
  0
ARC
  5
1B8
330
21
100
AcDbEntity
  8
Sichtbare Kanten
  6
Continuous
370
    50
100
AcDbCircle
 10
507.4035279216082
 20
218.111231224537
 30
0.0
 40
54.4999999999996
100
AcDbArc
 50
218.7562213554655
 51
231.2437786445346
  0
ARC
  5
1B9
330
21
100
AcDbEntity
  8
Sichtbare Kanten
  6
Continuous
370
    50
100
AcDbCircle
 10
507.4035279216088
 20
218.111231224537
 30
0.0
 40
54.50000000000045
100
AcDbArc
 50
128.7562213554656
 51
141.2437786445345
  0
ARC
  5
1BA
330
21
100
AcDbEntity
  8
Sichtbare Kanten
  6
Continuous
370
    50
100
AcDbCircle
 10
507.4035279216086
 20
218.1112312245373
 30
0.0
 40
54.49999999999995
100
AcDbArc
 50
38.75622135546544
 51
51.24377864453453
  0
ARC
  5
1BB
330
21
100
AcDbEntity
  8
Sichtbare Kanten
  6
Continuous
370
    50
100
AcDbCircle
 10
507.4035279216088
 20
218.111231224537
 30
0.0
 40
54.4999999999996
100
AcDbArc
 50
308.7562213554654
 51
321.2437786445347
  0
CIRCLE
  5
1BC
330
21
100
AcDbEntity
  8
Sichtbare Kanten
  6
Continuous
370
    50
100
AcDbCircle
 10
507.4035279215721
 20
218.1112312245373
 30
0.0
 40
24.0
  0
CIRCLE
  5
1BD
330
21
100
AcDbEntity
  8
Sichtbare Kanten
  6
Continuous
370
    50
100
AcDbCircle
 10
507.4035279215745
 20
218.1112312245373
 30
0.0
 40
42.5
  0
ARC
  5
1BE
330
21
100
AcDbEntity
  8
Sichtbare Kanten
  6
Continuous
370
    50
100
AcDbCircle
 10
507.4035279215718
 20
218.1112312245373
 30
0.0
 40
12.5
100
AcDbArc
 50
103.8865403626765
 51
76.11345963741874
  0
CIRCLE
  5
1BF
330
21
100
AcDbEntity
  8
Sichtbare Kanten
  6
Continuous
370
    50
100
AcDbCircle
 10
507.4035279215608
 20
218.1112312245373
 30
0.0
 40
3.2
  0
CIRCLE
  5
1C0
330
21
100
AcDbEntity
  8
Sichtbare Kanten
  6
Continuous
370
    50
100
AcDbCircle
 10
507.4035279215613
 20
218.1112312245373
 30
0.0
 40
2.458499999999999
  0
CIRCLE
  5
1C1
330
21
100
AcDbEntity
  8
Sichtbare Kanten
  6
Continuous
370
    50
100
AcDbCircle
 10
507.4035279215599
 20
218.1112312245373
 30
0.0
 40
4.799999999999998
  0
ARC
  5
1C2
330
21
100
AcDbEntity
  8
Sichtbare Kanten
  6
Continuous
370
    25
100
AcDbCircle
 10
507.4035279215613
 20
218.1112312245374
 30
0.0
 40
2.999999999999976
100
AcDbArc
 50
260.0000000000027
 51
169.9999999999526
  0
LINE
  5
1C3
330
21
100
AcDbEntity
  8
Sichtbare Kanten
  6
Continuous
370
    50
100
AcDbLine
 10
504.4035279215616
 20
230.6112312245373
 30
0.0
 11
504.4035279215616
 21
227.6506232387068
 31
0.0
  0
LINE
  5
1C4
330
21
100
AcDbEntity
  8
Sichtbare Kanten
  6
Continuous
370
    50
100
AcDbLine
 10
510.4035279215616
 20
230.6112312245373
 30
0.0
 11
510.4035279215616
 21
227.6506232387068
 31
0.0
  0
LINE
  5
1C5
330
21
100
AcDbEntity
  8
Sichtbare Kanten
  6
Continuous
370
    50
100
AcDbLine
 10
504.4035279215616
 20
230.6112312245373
 30
0.0
 11
510.4035279215616
 21
230.6112312245373
 31
0.0
  0
CIRCLE
  5
1C6
330
21
100
AcDbEntity
  8
Sichtbare Kanten
  6
Continuous
370
    50
100
AcDbCircle
 10
482.6547905800453
 20
242.8599685660664
 30
0.0
 40
2.458499999999999
  0
CIRCLE
  5
1C7
330
21
100
AcDbEntity
  8
Sichtbare Kanten
  6
Continuous
370
    50
100
AcDbCircle
 10
482.6547905800453
 20
193.3624938830081
 30
0.0
 40
2.458499999999999
  0
CIRCLE
  5
1C8
330
21
100
AcDbEntity
  8
Sichtbare Kanten
  6
Continuous
370
    50
100
AcDbCircle
 10
532.1522652631037
 20
193.3624938830081
 30
0.0
 40
2.458499999999999
  0
ARC
  5
1C9
330
21
100
AcDbEntity
  8
Sichtbare Kanten
  6
Continuous
370
    25
100
AcDbCircle
 10
482.6547905800453
 20
242.8599685660665
 30
0.0
 40
2.999999999999975
100
AcDbArc
 50
260.0000000000027
 51
169.9999999999526
  0
ARC
  5
1CA
330
21
100
AcDbEntity
  8
Sichtbare Kanten
  6
Continuous
370
    25
100
AcDbCircle
 10
482.6547905800453
 20
193.3624938830081
 30
0.0
 40
2.999999999999976
100
AcDbArc
 50
260.0000000000027
 51
169.9999999999526
  0
ARC
  5
1CB
330
21
100
AcDbEntity
  8
Sichtbare Kanten
  6
Continuous
370
    25
100
AcDbCircle
 10
532.1522652631037
 20
193.3624938830081
 30
0.0
 40
2.999999999999976
100
AcDbArc
 50
260.0000000000027
 51
169.999999999952
  0
CIRCLE
  5
1CC
330
21
100
AcDbEntity
  8
Sichtbare Kanten
  6
Continuous
370
    50
100
AcDbCircle
 10
532.1522652631037
 20
242.8599685660664
 30
0.0
 40
2.458499999999999
  0
ARC
  5
1CD
330
21
100
AcDbEntity
  8
Sichtbare Kanten
  6
Continuous
370
    25
100
AcDbCircle
 10
532.1522652631037
 20
242.8599685660665
 30
0.0
 40
2.999999999999982
100
AcDbArc
 50
260.0000000000028
 51
169.9999999999526
  0
CIRCLE
  5
1CE
330
21
100
AcDbEntity
  8
Sichtbare Kanten
  6
Continuous
370
    50
100
AcDbCircle
 10
507.4035279215599
 20
218.1112312245373
 30
0.0
 40
9.595854811567264
  0
CIRCLE
  5
1CF
330
21
100
AcDbEntity
  8
Sichtbare Kanten
  6
Continuous
370
    50
100
AcDbCircle
 10
507.4035279215602
 20
218.1112312245373
 30
0.0
 40
10.0
  0
CIRCLE
  5
1D0
330
21
100
AcDbEntity
  8
Sichtbare Kanten
  6
Continuous
370
    50
100
AcDbCircle
 10
507.4035279215721
 20
218.1112312245373
 30
0.0
 40
27.09585481156727
  0
CIRCLE
  5
1D1
330
21
100
AcDbEntity
  8
Sichtbare Kanten
  6
Continuous
370
    50
100
AcDbCircle
 10
507.4035279215723
 20
218.1112312245373
 30
0.0
 40
27.50000000000001
  0
ARC
  5
1D2
330
21
100
AcDbEntity
  8
Sichtbare Kanten
  6
Continuous
370
    50
100
AcDbCircle
 10
103.2908689434477
 20
218.1112312245372
 30
0.0
 40
9.499999999999943
100
AcDbArc
 50
260.9152797126089
 51
279.084720287391
  0
ARC
  5
1D3
330
21
100
AcDbEntity
  8
Sichtbare Kanten
  6
Continuous
370
    50
100
AcDbCircle
 10
103.2908689434533
 20
218.1112312245373
 30
0.0
 40
9.499999999999998
100
AcDbArc
 50
279.0847202873911
 51
260.9152797126089
  0
ARC
  5
1D4
330
21
100
AcDbEntity
  8
Sichtbare Kanten
  6
Continuous
370
    50
100
AcDbCircle
 10
103.2908689434533
 20
218.1112312245373
 30
0.0
 40
11.5
100
AcDbArc
 50
277.4947174539267
 51
262.5052825460733
  0
CIRCLE
  5
1D5
330
21
100
AcDbEntity
  8
Sichtbare Kanten
  6
Continuous
370
    50
100
AcDbCircle
 10
103.2908689434411
 20
218.1112312245373
 30
0.0
 40
4.999999999999998
  0
ARC
  5
1D6
330
21
100
AcDbEntity
  8
Sichtbare Kanten
  6
Continuous
370
    50
100
AcDbCircle
 10
103.290868943455
 20
218.1112312245372
 30
0.0
 40
54.49999999999992
100
AcDbArc
 50
308.7562213554654
 51
321.2437786445347
  0
ARC
  5
1D7
330
21
100
AcDbEntity
  8
Sichtbare Kanten
  6
Continuous
370
    50
100
AcDbCircle
 10
103.2908689434545
 20
218.1112312245368
 30
0.0
 40
54.50000000000066
100
AcDbArc
 50
38.75622135546555
 51
51.24377864453446
  0
ARC
  5
1D8
330
21
100
AcDbEntity
  8
Sichtbare Kanten
  6
Continuous
370
    50
100
AcDbCircle
 10
103.2908689434547
 20
218.1112312245375
 30
0.0
 40
54.49999999999961
100
AcDbArc
 50
128.7562213554654
 51
141.2437786445345
  0
ARC
  5
1D9
330
21
100
AcDbEntity
  8
Sichtbare Kanten
  6
Continuous
370
    50
100
AcDbCircle
 10
103.2908689434545
 20
218.1112312245368
 30
0.0
 40
54.49999999999935
100
AcDbArc
 50
218.7562213554653
 51
231.2437786445346
  0
CIRCLE
  5
1DA
330
21
100
AcDbEntity
  8
Sichtbare Kanten
  6
Continuous
370
    50
100
AcDbCircle
 10
103.2908689434549
 20
218.1112312245373
 30
0.0
 40
25.6
  0
CIRCLE
  5
1DB
330
21
100
AcDbEntity
  8
Sichtbare Kanten
  6
Continuous
370
    50
100
AcDbCircle
 10
103.2908689434548
 20
218.1112312245373
 30
0.0
 40
25.1
  0
LINE
  5
1DC
330
21
100
AcDbEntity
  8
Sichtbare Kanten
  6
Continuous
370
    50
100
AcDbLine
 10
69.17342472499099
 20
175.6112312245373
 30
0.0
 11
137.4083131619189
 21
175.6112312245373
 31
0.0
  0
LINE
  5
1DD
330
21
100
AcDbEntity
  8
Sichtbare Kanten
  6
Continuous
370
    50
100
AcDbLine
 10
145.7908689434549
 20
183.9937870060733
 30
0.0
 11
145.7908689434549
 21
252.2286754430012
 31
0.0
  0
LINE
  5
1DE
330
21
100
AcDbEntity
  8
Sichtbare Kanten
  6
Continuous
370
    50
100
AcDbLine
 10
137.4083131619189
 20
260.6112312245373
 30
0.0
 11
69.17342472499099
 21
260.6112312245373
 31
0.0
  0
LINE
  5
1DF
330
21
100
AcDbEntity
  8
Sichtbare Kanten
  6
Continuous
370
    50
100
AcDbLine
 10
60.79086894345495
 20
252.2286754430012
 30
0.0
 11
60.79086894345495
 21
183.9937870060733
 31
0.0
  0
CIRCLE
  5
1E0
330
21
100
AcDbEntity
  8
Sichtbare Kanten
  6
Continuous
370
    50
100
AcDbCircle
 10
136.8784410498158
 20
251.6988033308983
 30
0.0
 40
2.458499999999999
  0
CIRCLE
  5
1E1
330
21
100
AcDbEntity
  8
Sichtbare Kanten
  6
Continuous
370
    50
100
AcDbCircle
 10
136.8784410498158
 20
184.5236591181763
 30
0.0
 40
2.458499999999999
  0
CIRCLE
  5
1E2
330
21
100
AcDbEntity
  8
Sichtbare Kanten
  6
Continuous
370
    50
100
AcDbCircle
 10
69.70329683709379
 20
184.5236591181763
 30
0.0
 40
2.458499999999999
  0
ARC
  5
1E3
330
21
100
AcDbEntity
  8
Sichtbare Kanten
  6
Continuous
370
    25
100
AcDbCircle
 10
136.8784410498159
 20
251.6988033308983
 30
0.0
 40
2.999999999999991
100
AcDbArc
 50
80.00000000000216
 51
349.9999999999511
  0
ARC
  5
1E4
330
21
100
AcDbEntity
  8
Sichtbare Kanten
  6
Continuous
370
    25
100
AcDbCircle
 10
136.8784410498159
 20
184.5236591181762
 30
0.0
 40
2.999999999999973
100
AcDbArc
 50
80.00000000000204
 51
349.9999999999517
  0
ARC
  5
1E5
330
21
100
AcDbEntity
  8
Sichtbare Kanten
  6
Continuous
370
    25
100
AcDbCircle
 10
69.70329683709396
 20
184.5236591181762
 30
0.0
 40
2.999999999999975
100
AcDbArc
 50
80.00000000000238
 51
349.9999999999517
  0
CIRCLE
  5
1E6
330
21
100
AcDbEntity
  8
Sichtbare Kanten
  6
Continuous
370
    50
100
AcDbCircle
 10
69.70329683709379
 20
251.6988033308983
 30
0.0
 40
2.458499999999999
  0
ARC
  5
1E7
330
21
100
AcDbEntity
  8
Sichtbare Kanten
  6
Continuous
370
    25
100
AcDbCircle
 10
69.70329683709396
 20
251.6988033308983
 30
0.0
 40
2.999999999999975
100
AcDbArc
 50
80.00000000000238
 51
349.9999999999517
  0
LINE
  5
1E8
330
21
100
AcDbEntity
  8
Sichtbare Kanten
  6
Continuous
370
    50
100
AcDbLine
 10
122.2554193204789
 20
234.5537319162604
 30
0.0
 11
95.08833689146376
 21
241.8331297138248
 31
0.0
  0
LINE
  5
1E9
330
21
100
AcDbEntity
  8
Sichtbare Kanten
  6
Continuous
370
    50
100
AcDbLine
 10
101.7908689434529
 20
193.0560920311503
 30
0.0
 11
101.7908689434529
 21
206.7094769735459
 31
0.0
  0
LINE
  5
1EA
330
21
100
AcDbEntity
  8
Sichtbare Kanten
  6
Continuous
370
    50
100
AcDbLine
 10
104.7908689434529
 20
206.7094769735459
 30
0.0
 11
104.7908689434528
 21
193.0560920311501
 31
0.0
  0
LINE
  5
1EB
330
21
100
AcDbEntity
  8
Sichtbare Kanten
  6
Continuous
370
    50
100
AcDbLine
 10
104.7908689434533
 20
208.7303997048905
 30
0.0
 11
104.7908689434533
 21
206.7094769735459
 31
0.0
  0
LINE
  5
1EC
330
21
100
AcDbEntity
  8
Sichtbare Kanten
  6
Continuous
370
    50
100
AcDbLine
 10
101.7908689434533
 20
206.7094769735459
 30
0.0
 11
101.7908689434533
 21
208.7303997048905
 31
0.0
  0
LINE
  5
1ED
330
21
100
AcDbEntity
  8
AM_7
100
AcDbLine
 10
124.7750183604964
 20
199.1112312245373
 30
0.0
 11
58.29086894345066
 21
199.1112312245373
 31
0.0
  0
LINE
  5
1EE
330
21
100
AcDbEntity
  8
AM_7
100
AcDbLine
 10
147.2083470112338
 20
218.1112312245373
 30
0.0
 11
58.96578601762278
 21
218.1112312245373
 31
0.0
  0
LINE
  5
1EF
330
21
100
AcDbEntity
  8
AM_7
100
AcDbLine
 10
103.2908689434549
 20
262.0257267634098
 30
0.0
 11
103.2908689434549
 21
173.937148825207
 31
0.0
  0
LINE
  5
1F0
330
21
100
AcDbEntity
  8
AM_7
100
AcDbLine
 10
133.3722520753023
 20
248.1926143563848
 30
0.0
 11
140.3846300243293
 21
255.2049923054118
 31
0.0
  0
LINE
  5
1F1
330
21
100
AcDbEntity
  8
AM_7
100
AcDbLine
 10
65.81420954056797
 20
255.5878906274242
 30
0.0
 11
73.59238413361994
 21
247.8097160343724
 31
0.0
  0
LINE
  5
1F2
330
21
100
AcDbEntity
  8
AM_7
100
AcDbLine
 10
66.19710786258029
 20
181.0174701436628
 30
0.0
 11
73.20948581160731
 21
188.0298480926898
 31
0.0
  0
LINE
  5
1F3
330
21
100
AcDbEntity
  8
AM_7
100
AcDbLine
 10
140.3846300243293
 20
181.0174701436628
 30
0.0
 11
133.3722520753023
 21
188.0298480926898
 31
0.0
  0
CIRCLE
  5
1F4
330
21
100
AcDbEntity
  8
AM_7
100
AcDbCircle
 10
103.2908689434549
 20
218.1112312245372
 30
0.0
 40
47.49999999999997
  0
LINE
  5
1F5
330
21
100
AcDbEntity
  8
AM_7
100
AcDbLine
 10
205.5329621031387
 20
218.1112312245373
 30
0.0
 11
402.4051737435514
 21
218.1112312245373
 31
0.0
  0
LINE
  5
1F6
330
21
100
AcDbEntity
  8
AM_7
100
AcDbLine
 10
479.148601605532
 20
246.3661575405799
 30
0.0
 11
486.1609795545589
 21
239.3537795915529
 31
0.0
  0
LINE
  5
1F7
330
21
100
AcDbEntity
  8
AM_7
100
AcDbLine
 10
528.6460762885901
 20
239.3537795915529
 30
0.0
 11
535.6584542376173
 21
246.3661575405799
 31
0.0
  0
LINE
  5
1F8
330
21
100
AcDbEntity
  8
AM_7
100
AcDbLine
 10
528.6460762885901
 20
196.8686828575215
 30
0.0
 11
535.6584542376173
 21
189.8563049084946
 31
0.0
  0
LINE
  5
1F9
330
21
100
AcDbEntity
  8
AM_7
100
AcDbLine
 10
486.1609795545589
 20
196.8686828575215
 30
0.0
 11
479.148601605532
 21
189.8563049084946
 31
0.0
  0
CIRCLE
  5
1FA
330
21
100
AcDbEntity
  8
AM_7
100
AcDbCircle
 10
507.4035279215745
 20
218.1112312245373
 30
0.0
 40
34.99999999999998
  0
LINE
  5
1FB
330
21
100
AcDbEntity
  8
AM_7
100
AcDbLine
 10
552.4035279215744
 20
218.1112312245373
 30
0.0
 11
462.4035279215743
 21
218.1112312245373
 31
0.0
  0
LINE
  5
1FC
330
21
100
AcDbEntity
  8
AM_7
100
AcDbLine
 10
507.4035279215745
 20
263.1112312245373
 30
0.0
 11
507.4035279215745
 21
173.1112312245373
 31
0.0
  0
LINE
  5
1FD
330
21
100
AcDbEntity
  8
AM_7
100
AcDbLine
 10
392.8099061335601
 20
199.1112312245373
 30
0.0
 11
377.9569811335602
 21
199.1112312245373
 31
0.0
  0
LINE
  5
1FE
330
21
100
AcDbEntity
  8
AM_7
100
AcDbLine
 10
385.3834436335602
 20
206.5376937245373
 30
0.0
 11
385.3834436335602
 21
191.6847687245373
 31
0.0
  0
INSERT
  5
354
330
21
100
AcDbEntity
  8
0
370
     0
100
AcDbBlockReference
  2
DIN_A2
 10
6.920604236227744
 20
-8.785288380370275
 30
0.0
1001
GENIUS_GENOREF_13
1005
4D0
1001
GENIUS_GENOBJ-N-SDF_13
1002
{
1000
OWNER
1000
GEN
1002
}
1001
GENIUS_GENODEF_13
1002
{
1000
HIER
1070
     0
1002
}
1002
{
1000
MANEDIT
1070
     0
1002
}
1002
{
1000
NOSEL
1070
     0
1002
}
1002
{
1000
BEHIND
1070
     0
1002
}
1002
{
1000
OTHER
1070
     0
1002
}
1002
{
1000
REACTOR
1002
}
1001
GENIUS_GENSCREG_15
1040
1.0
1040
1.0
1011
6.920604236227744
1021
-8.785288380370275
1031
0.0
1011
600.9206042362277
1021
411.2147116196296
1031
0.0
1070
     3
  0
INSERT
  5
4BC
330
21
100
AcDbEntity
  8
0
370
     0
100
AcDbBlockReference
 66
     1
  2
PLANETROLL
 10
590.9206042362275
 20
1.214711619629724
 30
0.0
1001
GENIUS_GENOREF_13
1005
4D0
  0
ATTRIB
  5
4BE
330
4BC
100
AcDbEntity
  8
AM_BOR
100
AcDbText
 10
509.713439867156
 20
30.38930839382329
 30
0.0
 40
5.00000000000049
  1
Planetengetriebe planetdrive PD085
 41
0.6559652638610555
100
AcDbAttribute
  2
GEN-TITLE-DES1{15.54}
 70
     0
  0
ATTRIB
  5
4BF
330
4BC
100
AcDbEntity
  8
AM_BOR
 62
     2
370
    35
100
AcDbText
 10
510.213439867156
 20
22.38930839382328
 30
0.0
 40
3.500000000000171
  1
2-stufig mit Antriebshohlwelle
 41
0.8
100
AcDbAttribute
  2
GEN-TITLE-DES2{21.21}
 70
     0
  0
ATTRIB
  5
4C0
330
4BC
100
AcDbEntity
  8
AM_BOR
100
AcDbText
 10
509.3146021378623
 20
9.08971161962971
 30
0.0
 40
5.000000000000735
  1
PD085-2_dxf
 41
0.8
100
AcDbAttribute
  2
GEN-TITLE-NR{13.37}
 70
     0
  0
ATTRIB
  5
4C1
330
4BC
100
AcDbEntity
  8
AM_BOR
 62
     1
370
    25
100
AcDbText
 10
416.0166554277037
 20
44.51958451860915
 30
0.0
 40
2.5
  1
0.2x45°
100
AcDbAttribute
  2
FASE
 70
     0
  0
ATTRIB
  5
4C2
330
4BC
100
AcDbEntity
  8
AM_BOR
 62
     2
370
    35
100
AcDbText
 10
506.5552064354975
 20
41.00331377016742
 30
0.0
 40
3.0
  1
Notice protection endorsement after DIN 34
 41
0.5171708632152018
100
AcDbAttribute
  2
GEN-TITLE-NORM2{14.89}
 70
     0
  0
ATTRIB
  5
4C3
330
4BC
100
AcDbEntity
  8
AM_BOR
 62
     2
370
    35
100
AcDbText
 10
506.5552064354975
 20
45.28174974279695
 30
0.0
 40
3.0
  1
Schutzvermerk nach DIN 34 beachten
 41
0.6120300845350572
100
AcDbAttribute
  2
GEN-TITLE-NORM1{14.84}
 70
     0
  0
ATTRIB
  5
4C4
330
4BC
100
AcDbEntity
  8
AM_BOR
 62
     2
370
    35
100
AcDbText
 10
556.1630206957809
 20
45.28174974279695
 30
0.0
 40
3.0
  1
-
 41
0.8
100
AcDbAttribute
  2
GEN-TITLE-MAT1{11.15}
 70
     0
  0
ATTRIB
  5
4C5
330
4BC
100
AcDbEntity
  8
AM_BOR
 62
     2
370
    35
100
AcDbText
 10
556.1630206957809
 20
41.00331377016742
 30
0.0
 40
3.0
  1
-
 41
0.8
100
AcDbAttribute
  2
GEN-TITLE-MAT2{11.09}
 70
     0
  0
ATTRIB
  5
4C6
330
4BC
100
AcDbEntity
  8
AM_BOR
 62
     1
370
    25
100
AcDbText
 10
488.3880760931947
 20
31.62471161962975
 30
0.0
 40
2.500000000000365
  1
mcoppola
 41
0.8788079470198674
100
AcDbAttribute
  2
GEN-TITLE-NAME{5}
 70
     0
  0
ATTRIB
  5
4C7
330
4BC
100
AcDbEntity
  8
AM_BOR
 62
     1
370
    25
100
AcDbText
 10
488.8586189767278
 20
27.70623302354483
 30
0.0
 40
2.500000000000365
  1

100
AcDbAttribute
  2
GEN-TITLE-CHKM{5}
 70
     0
  0
ATTRIB
  5
4C8
330
4BC
100
AcDbEntity
  8
AM_BOR
 62
     2
370
    35
100
AcDbText
 10
584.8869642663149
 20
10.63471897535413
 30
0.0
 40
3.0
  1
-
 41
0.8
 72
     1
 11
585.8201971223812
 21
10.63471897535413
 31
0.0
100
AcDbAttribute
  2
GEN-TITLE-SHEET{2.62}
 70
     0
  0
ATTRIB
  5
4C9
330
4BC
100
AcDbEntity
  8
AM_BOR
 62
     2
370
    35
100
AcDbText
 10
574.1876318037765
 20
51.22922774866047
 30
0.0
 40
3.500000000000343
  1
-
 41
0.8
100
AcDbAttribute
  2
GEN-TITLE-QTY{4.38}
 70
     0
  0
ATTRIB
  5
4CA
330
4BC
100
AcDbEntity
  8
AM_BOR
 62
     2
370
    35
100
AcDbText
 10
519.9609944489603
 20
51.22922774866049
 30
0.0
 40
3.5
  1
1:1
 41
0.8
100
AcDbAttribute
  2
GEN-TITLE-SCA{5.42}
 70
     0
  0
ATTRIB
  5
4CB
330
4BC
100
AcDbEntity
  8
AM_BOR
 62
     1
370
    25
100
AcDbText
 10
472.3755038738255
 20
27.39275584424451
 30
0.0
 40
2.500000000000365
  1

100
AcDbAttribute
  2
GEN-TITLE-CHKD{5.41}
 70
     0
  0
ATTRIB
  5
4CC
330
4BC
100
AcDbEntity
  8
AM_BOR
 62
     1
370
    25
100
AcDbText
 10
472.2186573489458
 20
31.62471161962975
 30
0.0
 40
2.500000000000365
  1
2004-10-28
 41
0.7386554793819709
100
AcDbAttribute
  2
GEN-TITLE-DAT{5.44}
 70
     0
  0
ATTRIB
  5
4CD
330
4BC
100
AcDbEntity
  8
AM_BOR
 62
     1
370
    25
100
AcDbText
 10
476.5485759339155
 20
2.16393539989518
 30
0.0
 40
2.5
  1

 41
0.2857860732232591
100
AcDbAttribute
  2
GEN-TITLE-DWG{10.8}
 70
     0
  0
ATTRIB
  5
4CE
330
4BC
100
AcDbEntity
  8
AM_BOR
 62
     1
370
    25
100
AcDbText
 10
585.5506482686847
 20
1.630895036130254
 30
0.0
 40
3.000000000000293
  1

 72
     1
 11
585.5506482686847
 21
1.630895036130254
 31
0.0
100
AcDbAttribute
  2
GEN-TITLE-PLOT{2.94}
 70
     0
  0
ATTRIB
  5
4CF
330
4BC
100
AcDbEntity
  8
AM_BOR
 62
     2
370
    35
100
AcDbText
 10
555.2071550092795
 20
51.22922774866196
 30
0.0
 40
3.500000000000343
  1
-
 41
0.8
100
AcDbAttribute
  2
GEN-TITLE-POSI{2.20}
 70
     0
  0
SEQEND
  5
4BD
330
4BC
100
AcDbEntity
  8
0
370
     0
  0
POINT
  5
4D0
330
21
100
AcDbEntity
  8
0
 60
     1
100
AcDbPoint
 10
0.0
 20
0.0
 30
0.0
1001
GENIUS_GENODEF_13
1002
{
1000
HIER
1070
     1
1002
}
1002
{
1000
MANEDIT
1070
     0
1002
}
1002
{
1000
NOSEL
1070
     0
1002
}
1002
{
1000
BEHIND
1070
     0
1002
}
1002
{
1000
OTHER
1070
     0
1002
}
1002
{
1000
REACTOR
1002
}
1001
GENIUS_GENOLIS_13
1002
{
1000
ENT
1005
4BC
1005
354
1002
}
1001
GENIUS_GENOENT_13
1002
{
1000
MYREF
1005
4D0
1002
}
1002
{
1000
GRP
1005
0
1002
}
1001
GENIUS_GENOBJ-N-TIT_13
1002
{
1000
OWNER
1000
GEN
1002
}
1001
GENIUS_GENTITLE_13
1002
{
1000
BORDER
1000
DIN_A2
1002
}
1002
{
1000
TITLE
1000
planetroll
1002
}
1002
{
1000
SCALE
1000
1:1
1002
}
1002
{
1000
TITLESTD
1000
DIN
1002
}
1002
{
1000
HRA
1005
354
1002
}
1002
{
1000
HTIT
1005
4BC
1002
}
1002
{
1000
UNCHG
1002
{
1000
GEN-TITLE-SIZ
1000
GEN-TITLE-SCA
1002
}
1002
}
1002
{
1000
GENIUSID
1005
4D0
1002
}
  0
LINE
  5
7AF
330
21
100
AcDbEntity
  8
AM_6
100
AcDbLine
 10
408.0406042362273
 20
39.28471161962974
 30
0.0
 11
461.3806042362273
 21
56.20471161962979
 31
0.0
  0
LINE
  5
7B0
330
21
100
AcDbEntity
  8
AM_6
100
AcDbLine
 10
461.3806042362273
 20
39.28471161962978
 30
0.0
 11
486.7806042362273
 21
56.20471161962974
 31
0.0
  0
LINE
  5
7B1
330
21
100
AcDbEntity
  8
AM_6
100
AcDbLine
 10
486.7806042362273
 20
39.28471161962974
 30
0.0
 11
504.5606042362273
 21
56.20471161962974
 31
0.0
  0
TEXT
  5
7D5
330
21
100
AcDbEntity
  8
SR240-AUSF_L
100
AcDbText
 10
407.6740881828173
 20
72.68463133148788
 30
0.0
 40
2.5
  1
Massbild unverbindlich. Änderungen konstruktiver Einzelheiten vorbehalten.
 50
359.9593437500197
 41
0.9129610431748462
 72
     5
 11
522.5509772604786
 21
72.60311635180048
 31
0.0
100
AcDbText
  0
TEXT
  5
7D6
330
21
100
AcDbEntity
  8
SR240-AUSF_L
100
AcDbText
 10
407.6740881828173
 20
66.89813133148786
 30
0.0
 40
2.5
  1
Dimension drawing subject to change. We reserve the right to change constructional details.
 50
0.0329072088561203
 41
0.8520484883695822
 72
     5
 11
538.3241768771588
 21
66.97316879960516
 31
0.0
100
AcDbText
  0
ENDSEC
  0
SECTION
  2
OBJECTS
  0
DICTIONARY
  5
C
330
0
100
AcDbDictionary
281
     1
  3
ACAD_COLOR
350
1C
  3
ACAD_GROUP
350
D
  3
ACAD_LAYOUT
350
1A
  3
ACAD_MATERIAL
350
1B
  3
ACAD_MLINESTYLE
350
17
  3
ACAD_PLOTSETTINGS
350
19
  3
ACAD_PLOTSTYLENAME
350
E
  3
ACDBHEADERROUNDTRIPXREC
350
A7E
  3
AcDbVariableDictionary
350
1FF
  3
AcmDictionary
350
288
  3
AMG
350
21B
  3
AMGSNAPSETTINGS
350
34B
  3
DWGPROPS
350
A7D
  0
DICTIONARY
  5
629
330
2
100
AcDbDictionary
280
     1
281
     1
  3
AMLAYER_GROUPCOLORS
360
62A
  0
DICTIONARY
  5
62D
330
21
100
AcDbDictionary
280
     1
281
     1
  3
ACAD_INDEX
360
A54
  0
DICTIONARY
  5
4B6
330
36A
100
AcDbDictionary
280
     1
281
     1
  0
DICTIONARY
  5
1C
102
{ACAD_REACTORS
330
C
102
}
330
C
100
AcDbDictionary
281
     1
  0
DICTIONARY
  5
D
102
{ACAD_REACTORS
330
C
102
}
330
C
100
AcDbDictionary
281
     1
  0
DICTIONARY
  5
1A
102
{ACAD_REACTORS
330
C
102
}
330
C
100
AcDbDictionary
281
     1
  3
Layout1
350
20
  3
Layout2
350
28
  3
Model
350
24
  0
DICTIONARY
  5
1B
102
{ACAD_REACTORS
330
C
102
}
330
C
100
AcDbDictionary
281
     1
  0
DICTIONARY
  5
17
102
{ACAD_REACTORS
330
C
102
}
330
C
100
AcDbDictionary
281
     1
  3
Standard
350
18
  0
DICTIONARY
  5
19
102
{ACAD_REACTORS
330
C
102
}
330
C
100
AcDbDictionary
281
     1
  0
ACDBDICTIONARYWDFLT
  5
E
102
{ACAD_REACTORS
330
C
102
}
330
C
100
AcDbDictionary
281
     1
  3
Normal
350
F
100
AcDbDictionaryWithDefault
340
F
  0
DICTIONARY
  5
A7E
102
{ACAD_REACTORS
330
C
102
}
330
C
100
AcDbDictionary
281
     1
  3
COLORDICT
350
A80
  3
MATERIALDICT
350
A7F
  0
DICTIONARY
  5
1FF
102
{ACAD_REACTORS
330
C
102
}
330
C
100
AcDbDictionary
281
     1
  3
DIMASSOC
350
201
  3
HIDETEXT
350
200
  3
INDEXCTL
350
7E6
  3
PROJECTNAME
350
202
  0
DICTIONARY
  5
288
102
{ACAD_REACTORS
330
C
102
}
330
C
100
AcDbDictionary
281
     1
  3
AcmStdDictionary
350
292
  0
DICTIONARY
  5
21B
102
{ACAD_REACTORS
330
C
102
}
330
C
100
AcDbDictionary
281
     1
  0
DICTIONARY
  5
34B
102
{ACAD_REACTORS
330
C
102
}
330
C
100
AcDbDictionary
281
     1
  0
XRECORD
  5
A7D
102
{ACAD_REACTORS
330
C
102
}
330
C
100
AcDbXrecord
280
     1
  1
DWGPROPS COOKIE
  2

  3

  4
mcoppola
  6

  7

  8

  9

300
=
301
=
302
=
303
=
304
=
305
=
306
=
307
=
308
=
309
=
 40
0.0213733449074074
 41
2453509.603714329
 42
2453669.42103007
  1

 90
        0
  0
DICTIONARY
  5
62A
102
{ACAD_REACTORS
330
629
102
}
330
629
100
AcDbDictionary
280
     1
281
     1
  0
DICTIONARY
  5
A54
102
{ACAD_REACTORS
330
62D
102
}
330
62D
100
AcDbDictionary
281
     1
  3
*A1
350
A55
  0
LAYOUT
  5
20
102
{ACAD_XDICTIONARY
360
A81
102
}
102
{ACAD_REACTORS
330
1A
102
}
330
1A
100
AcDbPlotSettings
  1

  2

  4

  6

 40
0.0
 41
0.0
 42
0.0
 43
0.0
 44
0.0
 45
0.0
 46
0.0
 47
0.0
 48
0.0
 49
0.0
140
0.0
141
0.0
142
1.0
143
1.0
 70
   688
 72
     0
 73
     0
 74
     5
  7

 75
    16
147
1.0
148
0.0
149
0.0
100
AcDbLayout
  1
Layout1
 70
     1
 71
     1
 10
0.0
 20
0.0
 11
709.676
 21
548.3859999999999
 12
0.0
 22
0.0
 32
0.0
 14
0.0
 24
0.0
 34
0.0
 15
709.676
 25
548.3859999999999
 35
0.0
146
0.0
 13
0.0
 23
0.0
 33
0.0
 16
1.0
 26
0.0
 36
0.0
 17
0.0
 27
1.0
 37
0.0
 76
     0
330
1D
  0
LAYOUT
  5
28
102
{ACAD_XDICTIONARY
360
A85
102
}
102
{ACAD_REACTORS
330
1A
102
}
330
1A
100
AcDbPlotSettings
  1

  2

  4

  6

 40
0.0
 41
0.0
 42
0.0
 43
0.0
 44
0.0
 45
0.0
 46
0.0
 47
0.0
 48
0.0
 49
0.0
140
0.0
141
0.0
142
1.0
143
1.0
 70
   688
 72
     0
 73
     0
 74
     5
  7

 75
    16
147
1.0
148
0.0
149
0.0
100
AcDbLayout
  1
Layout2
 70
     1
 71
     2
 10
0.0
 20
0.0
 11
12.0
 21
9.0
 12
0.0
 22
0.0
 32
0.0
 14
0.0
 24
0.0
 34
0.0
 15
0.0
 25
0.0
 35
0.0
146
0.0
 13
0.0
 23
0.0
 33
0.0
 16
1.0
 26
0.0
 36
0.0
 17
0.0
 27
1.0
 37
0.0
 76
     0
330
25
  0
LAYOUT
  5
24
102
{ACAD_XDICTIONARY
360
A83
102
}
102
{ACAD_REACTORS
330
1A
102
}
330
1A
100
AcDbPlotSettings
  1

  2

  4

  6

 40
0.0
 41
0.0
 42
0.0
 43
0.0
 44
0.0
 45
0.0
 46
0.0
 47
0.0
 48
0.0
 49
0.0
140
0.0
141
0.0
142
1.0
143
1.0
 70
  1712
 72
     0
 73
     0
 74
     0
  7

 75
     0
147
1.0
148
0.0
149
0.0
100
AcDbLayout
  1
Model
 70
     1
 71
     0
 10
0.0
 20
0.0
 11
12.0
 21
9.0
 12
0.0
 22
0.0
 32
0.0
 14
0.0
 24
0.0
 34
0.0
 15
0.0
 25
0.0
 35
0.0
146
0.0
 13
0.0
 23
0.0
 33
0.0
 16
1.0
 26
0.0
 36
0.0
 17
0.0
 27
1.0
 37
0.0
 76
     0
330
21
  0
MLINESTYLE
  5
18
102
{ACAD_REACTORS
330
17
102
}
330
17
100
AcDbMlineStyle
  2
STANDARD
 70
     0
  3

 62
   256
 51
90.0
 52
90.0
 71
     2
 49
0.5
 62
   256
  6
BYLAYER
 49
-0.5
 62
   256
  6
BYLAYER
  0
ACDBPLACEHOLDER
  5
F
102
{ACAD_REACTORS
330
E
102
}
330
E
  0
XRECORD
  5
A80
102
{ACAD_REACTORS
330
A7E
102
}
330
A7E
100
AcDbXrecord
280
     1
340
1C
  0
XRECORD
  5
A7F
102
{ACAD_REACTORS
330
A7E
102
}
330
A7E
100
AcDbXrecord
280
     1
340
1B
  0
DICTIONARYVAR
  5
201
102
{ACAD_REACTORS
330
1FF
102
}
330
1FF
100
DictionaryVariables
280
     0
  1
1
  0
DICTIONARYVAR
  5
200
102
{ACAD_REACTORS
330
1FF
102
}
330
1FF
100
DictionaryVariables
280
     0
  1
1
  0
DICTIONARYVAR
  5
7E6
102
{ACAD_REACTORS
330
1FF
102
}
330
1FF
100
DictionaryVariables
280
     0
  1
1
  0
DICTIONARYVAR
  5
202
102
{ACAD_REACTORS
330
1FF
102
}
330
1FF
100
DictionaryVariables
280
     0
  1

  0
DICTIONARY
  5
292
102
{ACAD_REACTORS
330
288
102
}
330
288
100
AcDbDictionary
281
     1
  0
LAYER_INDEX
  5
A55
102
{ACAD_REACTORS
330
A54
102
}
330
A54
100
AcDbIndex
 40
2453669.42103007
100
AcDbLayerIndex
  8
0
360
A56
 90
        3
  8
Sichtbare Kanten
360
A57
 90
      155
  8
Verdeckte Kanten
360
A58
 90
        0
  8
Tangentiale Kanten
360
A59
 90
        0
  8
Schnittansichtslinien
360
A5A
 90
        0
  8
Detailkreislinien
360
A5B
 90
        0
  8
Bemaßungen
360
A5C
 90
        0
  8
Mittelpunktmarkierung
360
A5D
 90
        0
  8
Symbole
360
A5E
 90
        0
  8
Führungslinien
360
A5F
 90
        0
  8
Skizzierlinien
360
A60
 90
        0
  8
Phantomlinien
360
A61
 90
        0
  8
Symmetrielinien
360
A62
 90
        0
  8
Bruchlinien
360
A63
 90
        0
  8
Stich 1-Linien
360
A64
 90
        0
  8
Stich 2-Linien
360
A65
 90
        0
  8
Mittellinie
360
A66
 90
        0
  8
Nur Linien skizzieren
360
A67
 90
        0
  8
Biegungsenden
360
A68
 90
        0
  8
Konturlinien
360
A69
 90
        0
  8
Linien mit spezieller Bezeichnung
360
A6A
 90
        0
  8
Arbeitspunkt
360
A6B
 90
        0
  8
Arbeitsachse
360
A6C
 90
        0
  8
Arbeitsebene
360
A6D
 90
        0
  8
Hatch
360
A6E
 90
        0
  8
Text
360
A6F
 90
        0
  8
AM_BOR
360
A70
 90
        0
  8
AM_5
360
A71
 90
        0
  8
AM_4
360
A72
 90
        0
  8
AM_8
360
A73
 90
        1
  8
Logo-AM_3
360
A74
 90
        0
  8
Logo-AM_4
360
A75
 90
        0
  8
Logo-AM_8
360
A76
 90
        0
  8
AM_0
360
A77
 90
        0
  8
AM_7
360
A78
 90
       18
  8
AM_3
360
A79
 90
       14
  8
AM_6
360
A7A
 90
        3
  8
SR240-AUSF_L
360
A7B
 90
        2
  0
DICTIONARY
  5
A81
330
20
100
AcDbDictionary
280
     1
281
     1
  3
ACAD_XREC_ROUNDTRIP
360
A82
  0
DICTIONARY
  5
A85
330
28
100
AcDbDictionary
280
     1
281
     1
  3
ACAD_XREC_ROUNDTRIP
360
A86
  0
DICTIONARY
  5
A83
330
24
100
AcDbDictionary
280
     1
281
     1
  3
ACAD_XREC_ROUNDTRIP
360
A84
  0
IDBUFFER
  5
A56
330
0
100
AcDbIdBuffer
330
354
330
4BC
330
4D0
  0
IDBUFFER
  5
A57
330
0
100
AcDbIdBuffer
330
1C2
330
1C3
330
1C4
330
1C5
330
1C6
330
1C7
330
1C8
330
1C9
330
1CA
330
1CB
330
1CC
330
1CD
330
1CE
330
1CF
330
1D0
330
1D1
330
1D2
330
1D3
330
1D4
330
1D5
330
1D6
330
1D7
330
1D8
330
1D9
330
1DA
330
1DB
330
1DC
330
1DD
330
1DE
330
1DF
330
1E0
330
1E1
330
1E2
330
1E3
330
1E4
330
1E5
330
1E6
330
1E7
330
1E8
330
1E9
330
1EA
330
1EB
330
1EC
330
EC
330
ED
330
EE
330
EF
330
F0
330
F1
330
F2
330
F3
330
F4
330
F5
330
F6
330
F7
330
F8
330
F9
330
FA
330
FB
330
FC
330
FD
330
FE
330
FF
330
100
330
101
330
102
330
103
330
104
330
105
330
106
330
107
330
108
330
109
330
10A
330
10B
330
10C
330
10D
330
10E
330
10F
330
110
330
111
330
112
330
113
330
114
330
115
330
116
330
117
330
118
330
119
330
11A
330
11B
330
11C
330
11D
330
11E
330
11F
330
120
330
121
330
122
330
123
330
124
330
125
330
126
330
127
330
128
330
129
330
12A
330
12B
330
12C
330
12D
330
12E
330
12F
330
130
330
131
330
132
330
133
330
134
330
135
330
136
330
137
330
138
330
139
330
148
330
163
330
164
330
165
330
166
330
181
330
182
330
183
330
184
330
185
330
186
330
187
330
188
330
189
330
18A
330
18B
330
1B0
330
1B1
330
1B2
330
1B3
330
1B4
330
1B5
330
1B6
330
1B7
330
1B8
330
1B9
330
1BA
330
1BB
330
1BC
330
1BD
330
1BE
330
1BF
330
1C0
330
1C1
  0
IDBUFFER
  5
A58
330
0
100
AcDbIdBuffer
  0
IDBUFFER
  5
A59
330
0
100
AcDbIdBuffer
  0
IDBUFFER
  5
A5A
330
0
100
AcDbIdBuffer
  0
IDBUFFER
  5
A5B
330
0
100
AcDbIdBuffer
  0
IDBUFFER
  5
A5C
330
0
100
AcDbIdBuffer
  0
IDBUFFER
  5
A5D
330
0
100
AcDbIdBuffer
  0
IDBUFFER
  5
A5E
330
0
100
AcDbIdBuffer
  0
IDBUFFER
  5
A5F
330
0
100
AcDbIdBuffer
  0
IDBUFFER
  5
A60
330
0
100
AcDbIdBuffer
  0
IDBUFFER
  5
A61
330
0
100
AcDbIdBuffer
  0
IDBUFFER
  5
A62
330
0
100
AcDbIdBuffer
  0
IDBUFFER
  5
A63
330
0
100
AcDbIdBuffer
  0
IDBUFFER
  5
A64
330
0
100
AcDbIdBuffer
  0
IDBUFFER
  5
A65
330
0
100
AcDbIdBuffer
  0
IDBUFFER
  5
A66
330
0
100
AcDbIdBuffer
  0
IDBUFFER
  5
A67
330
0
100
AcDbIdBuffer
  0
IDBUFFER
  5
A68
330
0
100
AcDbIdBuffer
  0
IDBUFFER
  5
A69
330
0
100
AcDbIdBuffer
  0
IDBUFFER
  5
A6A
330
0
100
AcDbIdBuffer
  0
IDBUFFER
  5
A6B
330
0
100
AcDbIdBuffer
  0
IDBUFFER
  5
A6C
330
0
100
AcDbIdBuffer
  0
IDBUFFER
  5
A6D
330
0
100
AcDbIdBuffer
  0
IDBUFFER
  5
A6E
330
0
100
AcDbIdBuffer
  0
IDBUFFER
  5
A6F
330
0
100
AcDbIdBuffer
  0
IDBUFFER
  5
A70
330
0
100
AcDbIdBuffer
  0
IDBUFFER
  5
A71
330
0
100
AcDbIdBuffer
  0
IDBUFFER
  5
A72
330
0
100
AcDbIdBuffer
  0
IDBUFFER
  5
A73
330
0
100
AcDbIdBuffer
330
1AF
  0
IDBUFFER
  5
A74
330
0
100
AcDbIdBuffer
  0
IDBUFFER
  5
A75
330
0
100
AcDbIdBuffer
  0
IDBUFFER
  5
A76
330
0
100
AcDbIdBuffer
  0
IDBUFFER
  5
A77
330
0
100
AcDbIdBuffer
  0
IDBUFFER
  5
A78
330
0
100
AcDbIdBuffer
330
1FD
330
1FE
330
1ED
330
1EE
330
1EF
330
1F0
330
1F1
330
1F2
330
1F3
330
1F4
330
1F5
330
1F6
330
1F7
330
1F8
330
1F9
330
1FA
330
1FB
330
1FC
  0
IDBUFFER
  5
A79
330
0
100
AcDbIdBuffer
330
13A
330
13B
330
13C
330
13D
330
13E
330
13F
330
140
330
141
330
142
330
143
330
144
330
145
330
146
330
147
  0
IDBUFFER
  5
A7A
330
0
100
AcDbIdBuffer
330
7AF
330
7B0
330
7B1
  0
IDBUFFER
  5
A7B
330
0
100
AcDbIdBuffer
330
7D5
330
7D6
  0
XRECORD
  5
A82
102
{ACAD_REACTORS
330
A81
102
}
330
A81
100
AcDbXrecord
280
     1
102
SHADEPLOT
 70
     0
102
SHADEPLOTRESLEVEL
 70
     2
102
SHADEPLOTCUSTOMDPI
 70
   300
  0
XRECORD
  5
A86
102
{ACAD_REACTORS
330
A85
102
}
330
A85
100
AcDbXrecord
280
     1
102
SHADEPLOT
 70
     0
102
SHADEPLOTRESLEVEL
 70
     2
102
SHADEPLOTCUSTOMDPI
 70
   300
  0
XRECORD
  5
A84
102
{ACAD_REACTORS
330
A83
102
}
330
A83
100
AcDbXrecord
280
     1
102
SHADEPLOT
 70
     0
102
SHADEPLOTRESLEVEL
 70
     2
102
SHADEPLOTCUSTOMDPI
 70
   300
  0
ENDSEC
  0
EOF
